Song name
# A B C D E F G H I J K L M N O P Q R S T U V W X Y Z

Four Tet - As Serious As Your Life tab

Four Tet
As Serious As Your Life

It doesn't look like much, but that's because there isn't anything else in the song.

e-----------------------------:|
B-----------------------------:|
G-----------------------------:|
D------------6-8-6------------:|
A--------6/8--------8-6-------:|
E-----6-----------------97---:|


On the repeating notes:
e-----------------:|
B-----------------:|
G-----------------:|
D-----------------:|
A-----------------:|
E-----6-6-6-6-6-6-:|
Tap to rate this tab
# A B C D E F G H I J K L M N O P Q R S T U V W X Y Z