Song name
# A B C D E F G H I J K L M N O P Q R S T U V W X Y Z

Four Tet - Slow Jam tab

Four Tet
Slow Jam


beginning lines
e|-----------------------------------------------------------------|
A|---1---1---1---1---1---1---1---1---1---1---1---1---1---1---1---1-|
D|-----0---0---0-------0---0---0-------0---0---0-------0---0---0---| 2x
G|-3-------------------------------3-------------------------------|
B|-----------------3-------------------------------3---------------|
E|-----------------------------------------------------------------|

heard throughout the rest of the instrumental
e|-------3-------|-------3-------|-------3-------|-------3---------| 
A|---1------1---1|---1------1---1|---1------1---1|---1------1---1--|  
D|-----0------0--|-----0------0--|-----0------0--|-----0------0----| 
G|-3-------------|---------------|-0-------------|-2---------------|
B|---------------|-3-------------|---------------|-----------------|
E|---------------|---------------|---------------|-----------------|
Tap to rate this tab
# A B C D E F G H I J K L M N O P Q R S T U V W X Y Z