Song name
# A B C D E F G H I J K L M N O P Q R S T U V W X Y Z

Four Year Strong - The Take Over tab

Help us improve GuitareTab! Take a short survey!
----------------------------------------------------------------------------
			     The Take Over - Four Year Strong
----------------------------------------------------------------------------
Tabbed by:BrandonR
Email:Brandonr116@hotmail.com

Tuning:DADGBE

this is an intro song in to the whole cd
its really cool and really simple to play.

Bells come in, and then a siren, then followed by the drums..

g1 - listen for when you come in its light and soft its a little after drums start
e|-------------------------------------------------------------------------|
B|-------------------------------------------------------------------------|
G|--7---------------you play this only 7 times though out the whole song---|
D|----11-------------------------------------------------------------------|
A|-------0-----------------------------------------------------------------|
D|---------0---------------------------------------------------------------|
g2
e|-------------------------------------------------------------------------|
B|-----follow rythem-------------------------------------------------------|
G|-------------------------------------------------------------------------|
D|-0-0-00000-0-0-----------------------------------------------------------|
A|-0-0-00000-0-0-----------------------------------------------------------|
D|-0-0-00000-0-0-----------------------------------------------------------|

like i stated earlier this is a really easy intro and its fun to play and sing
 to. i think so anyway

| /  slide up
| \  slide down
| h  hammer-on
| p  pull-off
| ~  vibrato
| +  harmonic
| x  Mute note
============================================================================
Related for The Take Over tab