Song name
# A B C D E F G H I J K L M N O P Q R S T U V W X Y Z

Four Year Strong - Men Are From Mars Women Are From Hell tab

----------------------------------------------------------------------------
	  Men Are From Mars, Women Are From Hell - Four Year Strong
----------------------------------------------------------------------------

Tabbed by:faith_dead

Tuning: Drop D tuning (DADgbe)

Hey people, this is my second tab on ultimate-guitar. I didn't really adjust the
part, just listen to the song to get the right count, i think it is pretty clear then. Watch
notes beneath some parts, most of the time they're importnant! What i did adjust was the 
timing at the harmonic parts, so watch carefully when guitar 1 and 2 are playing
parts at the same time! Make some remarks if i forgotten something, or if you find a 
Enjoy!

Intro:

Guitar 1 & 2

e|-------------------------------------------------------------------------|
B|-------------------------------------------------------------------------|
G|--7-7-7-7-7-7-7-7-7-7-7-7-7-7-7-7----------------------------------------|
D|--6-6-6-6-6-6-6-6-6-6-6-6-6-6-6-6----------------------------------------|
A|--5-5-5-5-5-5-5-5-5-5-5-5-5-5-5-5----------------------------------------|
D|-------------------------------------------------------------------------|

Main Riff:

Guitar 1:

e|-------------------------------------------------------------------------|
B|-------------------------------------------------------------------------|
G|-------------------------------------------------------------------------|
D|------------------------------------------------------7------------------|
A|-----------------9-9-9--7-7*--5-5-5--7-7-7--9-7-5-7h9--------------------|
D|--0--0--0-00000----------------------------------------------------------|

Guitar 2:

e|-------------------------------------------------------------------------|
B|-------------------------------------------------------------------------|
G|-----------------7-7-7--6-6---7-7-7--6-6-6-------------------------------|
D|-------------------------------------------------------------------------|
A|-----------------5-5-5--4-4---5-5-5--4-4-4--9-7-0-4h5-4------------------|
D|--0--0--0-00000----------------------------------------------------------|

Guitar 1:

e|-------------------------------------------------------------------------|
B|-------------------------------------------------------------------------|
G|-------------------------------------------------------------------------|
D|-------------------------------------------------------------------------|
A|-----------------9-9-9--7-7*--5-5-5--7-7-7-------------------------------|
D|--0--0--0-00000----------------------------00-4(b)-00-4-5*---------------|

Note: The bend on the 4th fret is a slight bend, not a whole one.

Guitar 2:

e|-------------------------------------------------------------------------|
B|-------------------------------------------------------------------------|
G|-----------------7-7-7--6-6---7-7-7--6-6-6-------------------------------|
D|-------------------------------------------------------------------------|
A|-----------------5-5-5--4-4---5-5-5--4-4-4-------------------------------|
D|--0--0--0-00000----------------------------00-4(b)-00-4-5*---------------|

Guitar 1:

e|-------------------------------------------------------------------------|
B|-------------------------------------------------------------------------|
G|-------------------------------------------------------------------------|
D|------------------------------------------------------7------------------|
A|-----------------9-9-9--7-7*--5-5-5--7-7-7--9-7-5-7h9--------------------|
D|--0--0--0-00000----------------------------------------------------------|

Guitar 2:

e|-------------------------------------------------------------------------|
B|-------------------------------------------------------------------------|
G|-----------------7-7-7--6-6---7-7-7--6-6-6-------------------------------|
D|-------------------------------------------------------------------------|
A|-----------------5-5-5--4-4---5-5-5--4-4-4--9-7-0-4h5-4------------------|
D|--0--0--0-00000----------------------------------------------------------|

Guitar 1:

e|-------------------------------------------------------------------------|
B|-------------------------------------------------------------------------|
G|-------------------------------------------------------------------------|
D|------------------------------------------------------7----3---4/7-------|
A|-----------------9-9-9--7-7*--5-5-5--7-7-7--9-7-5-7h9----2---2-----------|
D|--0--0--0-00000----------------------------------------------------------|

Guitar 2:

e|-------------------------------------------------------------------------|
B|-------------------------------------------------------------------------|
G|-----------------7-7-7--6-6---7-7-7--6-6-6-------------------------------|
D|---------------------------------------------------------5-5-5-7---------|
A|-----------------5-5-5--4-4---5-5-5--4-4-4--9-7-0-4h5-4--3-3-3-4---------|
D|--0--0--0-00000----------------------------------------------------------|

VERSE 1:

Guitar 1:

Note: # = let ring

e|-------------------------------------------------------------------------|
B|-------------------------------------------------------------------------|
G|-------------------------------------------------------------------------|
D|--4----------------------------------------------3---4/7-----------------|
A|--0--------------------------------------------2---2---------------------|
D|--0----------------------------------------------------------------------|
    #
Guitar 2:

e|-------------------------------------------------------------------------|
B|-------------------------------------------------------------------------|
G|-------------------------------------------------------------------------|
D|--7--------------------------------------------5-5-5-7-------------------|
A|--5-0-0-0----------0-0-0--0-0---0-0-0----------3-3-3-4-------------------|
D|--0-0-0-0-000-000--0-0-0--0-0---0-0-0-000-000----------------------------|
   Pm ....................     Pm .............

Guitar 1:

e|-------------------------------------------------------------------------|
B|-------------------------------------------------------------------------|
G|-------------------------------------------------------------------------|
D|--4--4--------4------4-----4------4-------4------3---4/7-----------------|
A|--0--0--------0------0-----0------0-------0----2---2---------------------|
D|--0--0--------0------0-----0------0-------0------------------------------|
    #
Guitar 2:

Note: At the slide from fret 2 you should just slide all the way up the neck.

e|-------------------------------------------------------------------------|
B|-------------------------------------------------------------------------|
G|-------------------------------------------------------------------------|
D|--7----------------------------------------------------------------------|
A|--5-0-0-0----------0-0-0--0-0---0-0-0------------------------------------|
D|--0-0-0-0-000-000--0-0-0--0-0---0-0-0-000-000--2/------------------------|
   Pm ....................     Pm .............

PRE-CHORUS:

Guitar 1:

Note: Repeat 3 times

e|-------------------------------------------------------------------------|
B|-------------------------------------------------------------------------|
G|-------------------------------------------------------------------------|
D|--5--5-5--5-7--9--9------------------------------------------------------|
A|--5--5-5--5-7--9--9--5--5------------------------------------------------|
D|--5--5-5--5-7--9--9--4--4------------------------------------------------|

After 3 times:

e|-------------------------------------------------------------------------|
B|-------------------------------------------------------------------------|
G|-------------------------------------------------------------------------|
D|--5--5-5--5-5-5----------------------------------------------------------|
A|--5--5-5--5-5-5-9--9-9--9-9-9--------------------------------------------|
D|--5--5-5--5-5-5-8--8-8--8-8-8--------------------------------------------|

Guitar 2:

Note: I didn't adjust these two parts tho each other because it would have cost me a
of a time to do that. Just listen to the song and you will manage....

e|-------------------------------------------------------------------------|
B|-------------------------------------------------------------------------|
G|-------------------------------------------------------------------------|
D|---------4h5p4-------------7--5-4---------4--------------2-5-4-2---------|
A|--5--4-5-------7-5--5--4-5---------5--4-5----5-4--2--4-5-----------------|
D|-------------------------------------------------------------------------|

e|-------------------------------------------------------------------------|
B|-------------------------------------------------------------------------|
G|-------------------------------------------------------------------------|
D|---------4h5p4-------------7--5-4---------4-------------2-5-4-2----------|
A|--5--4-5-------7-5--5--4-5---------5--4-5----5-4--2h4h5---------5--------|
D|-------------------------------------------------------------------------|

CHORUS:

Note: Let the chords with an # under it ring

Guitar 1&2 first time(chorus):

e|-------------------------------------------------------------------------|
B|-------------------------------------------------------------------------|
G|-------------------------------------------------------------------------|
D|9--9-9-7-9--7--2--2-2-0-2--0--9--9-9-7-9--7--5--5-5--5-5-5---------------|
A|9--9-9-7-9--7--2--2-2-0-2--0--9--9-9-7-9--7--5--5-5--5-5-5-4--4-4-4-5----|
D|9--9-9-7-9--7--2--2-2-0-2--0--9--9-9-7-9--7--5--5-5--5-5-5-5--5-5-5-5----|
              #              #              #

Second Time(chorus):

Guitar one second time:

e|-------------------------------------------------------------------------|
B|-------------------------------------------------------------------------|
G|-------------------------------------------------------------------------|
D|--9--9-9-7-9--7--2--2-2-0-2--0--9--9-9-7-9--7----------------------------|
A|--9--9-9-7-9--7--2--2-2-0-2--0--9--9-9-7-9--7----------------------------|
D|--9--9-9-7-9--7--2--2-2-0-2--0--9--9-9-7-9--7----------------------------|
                #              #              #

Note: Look at the part beneath and watch what guitar 2 does at this part! Just slide
the neck at the sliding part....

e|-------------------------------------------------------------------------|
B|-------------------------------------------------------------------------|
G|-------------------------------------------------------------------------|
D|--5--5--7--7--9--9--2--2--5--5--7--7--9----------------------------------|
A|--5--5--7--7--9--9--2--2--5--5--7--7--9----------------------------------|
D|--5--5--7--7--9--9--2--2--5--5--7--7--9-X-X-X-\--------------------------|

Guitar two, second time:

e|-------------------------------------------------------------------------|
B|-------------------------------------------------------------------------|
G|-------------------------------------------------------------------------|
D|--9--9-9-7-9--7--2--2-2-0-2--0--9--9-9-7-9--7----------------------------|
A|--9--9-9-7-9--7--2--2-2-0-2--0--9--9-9-7-9--7----------------------------|
D|--9--9-9-7-9--7--2--2-2-0-2--0--9--9-9-7-9--7----------------------------|
                #              #              #

Note: Just slide down the neck at the sliding part....

e|-------------------------------------------------------------------------|
B|-------------------------------------------------------------------------|
G|-------------------------------------------------------------------------|
D|--0--0--2--2--4--4--2--2--0--0--2--2--4----------------------------------|
A|--2--2--4--4--5--5--2--2--2--2--4--4--5----------------------------------|
D|--------------------2--2----------------X-X-X-\--------------------------|


Main Riff Again:

Guitar 1:

e|-------------------------------------------------------------------------|
B|-------------------------------------------------------------------------|
G|-------------------------------------------------------------------------|
D|------------------------------------------------------7------------------|
A|-----------------9-9-9--7-7*--5-5-5--7-7-7--9-7-5-7h9--------------------|
D|--0--0--0-00000----------------------------------------------------------|

Guitar 2:

e|-------------------------------------------------------------------------|
B|-------------------------------------------------------------------------|
G|-----------------7-7-7--6-6---7-7-7--6-6-6-------------------------------|
D|-------------------------------------------------------------------------|
A|-----------------5-5-5--4-4---5-5-5--4-4-4--9-7-0-4h5-4------------------|
D|--0--0--0-00000----------------------------------------------------------|

Guitar 1:

e|-------------------------------------------------------------------------|
B|-------------------------------------------------------------------------|
G|-------------------------------------------------------------------------|
D|-------------------------------------------------------------------------|
A|-----------------9-9-9--7-7*--5-5-5--7-7-7-------------------------------|
D|--0--0--0-00000----------------------------00-4(b)-00-\------------------|

Note: The bend on the 4th fret is a slight bend, not a whole one. Keep fastpicking the
when you slide.

Guitar 2:

e|-------------------------------------------------------------------------|
B|-------------------------------------------------------------------------|
G|-----------------7-7-7--6-6---7-7-7--6-6-6-------------------------------|
D|-------------------------------------------------------------------------|
A|-----------------5-5-5--4-4---5-5-5--4-4-4-------------------------------|
D|--0--0--0-00000----------------------------00-4(b)-00-\------------------|

Guitar 1:

e|-------------------------------------------------------------------------|
B|-------------------------------------------------------------------------|
G|-------------------------------------------------------------------------|
D|------------------------------------------------------7------------------|
A|-----------------9-9-9--7-7*--5-5-5--7-7-7--9-7-5-7h9--------------------|
D|--0--0--0-00000----------------------------------------------------------|

Guitar 2:

e|-------------------------------------------------------------------------|
B|-------------------------------------------------------------------------|
G|-----------------7-7-7--6-6---7-7-7--6-6-6-------------------------------|
D|-------------------------------------------------------------------------|
A|-----------------5-5-5--4-4---5-5-5--4-4-4--9-7-0-4h5-4------------------|
D|--0--0--0-00000----------------------------------------------------------|

Guitar 1:

e|-------------------------------------------------------------------------|
B|-------------------------------------------------------------------------|
G|-------------------------------------------------------------------------|
D|------------------------------------------------------7------------------|
A|-----------------9-9-9--7-7*--5-5-5--7-7-7--9-7-5-7h9------0-2-5-2-0-----|
D|--0--0--0-00000------------------------------------------0---------------|

Guitar 2:

e|-------------------------------------------------------------------------|
B|-------------------------------------------------------------------------|
G|-----------------7-7-7--6-6---7-7-7--6-6-6-------------------------------|
D|-------------------------------------------------------------------------|
A|-----------------5-5-5--4-4---5-5-5--4-4-4--9-7-0-4h5-4----0-2-5-2-0-----|
D|--0--0--0-00000------------------------------------------0---------------|

VERSE 2:

Guitar 1:

e|-------------------------------------------------------------------------|
B|-------------------------------------------------------------------------|
G|-------------------------------------------------------------------------|
D|--0--4--7--4---------4-----7-----2-----5---------------------------------|
A|--0--4--7--0---------4-----7-----2-----5-----9--9-9--9--9-9-9-9-9-7------|
D|--0--4--7--0--X\-0-0-4-0-0-7-0-0-2-0-0-5-0-0-8--8-8--9--9-9-9-9-9-7------|
    #  #  #  #

Guitar 2:

e|-------------------------------------------------------------------------|
B|-------------------------------------------------------------------------|
G|-------------------------------------------------------------------------|
D|--0--------4---------4-----7-----2-----5---------------------------------|
A|--0--0--2--0---------4-----7-----2-----5-----9--9-9--9--9-9-9-9-9-7------|
D|--0--2--4--0--X\-0-0-4-0-0-7-0-0-2-0-0-5-0-0-8--8-8--9--9-9-9-9-9-7------|
    #  #  #  #

BREAKDOWN:

Guitar 1:

e|-------------------------------------------------------------------------|
B|-------------------------------------------------------------------------|
G|-------------------------------------------------------------------------|
D|-------------------------------------------------------------------------|
A|-------------------------------------------------------------------------|
D|--000--------------------------------------------------------------------|

Guitar 2:

e|-------------------------------------------------------------------------|
B|-------------------------------------------------------------------------|
G|-------------------------------------------------------------------------|
D|-------------------------------------------------------------------------|
A|-------------------------------------------------------------------------|
D|-----000-----------------------------------------------------------------|

Guitar 1&2:

Note: The bend is a slight bend again.

e|-------------------------------------------------------------------------|
B|-------------------------------------------------------------------------|
G|-------------------------------------------------------------------------|
D|-------------------------------------------------------------------------|
A|-------------------------------------------------------------------------|
D|--0000--0--0000--6-5-3--000\00--0000--2-3-4(b)--00-00-00-0-6-5-3---------|

e|-------------------------------------------------------------------------|
B|-------------------------------------------------------------------------|
G|-------------------------------------------------------------------------|
D|-------------------------------------------------------------------------|
A|-------------------------------------------------------------------------|
D|--000\00--0000--2-3-4-0000--0--0000--6-5-3--000\00--0000--2-3-4----------|

e|-------------------------------------------------------------------------|
B|-------------------------------------------------------------------------|
G|-------------------------------------------------------------------------|
D|-------------------------------------------------------------------------|
A|-------------------------------------------------------------------------|
D|--00-00-00-0-6-5-3--000\00--0000--2-3-4/---------------------------------|

PRE-CHORUS AGAIN:

First time only guitar one:

Repeat 2 times:

e|-------------------------------------------------------------------------|
B|-------------------------------------------------------------------------|
G|-------------------------------------------------------------------------|
D|--5--5-5--5-7--9--9------------------------------------------------------|
A|--5--5-5--5-7--9--9--5--5------------------------------------------------|
D|--5--5-5--5-7--9--9--4--4------------------------------------------------|

Then with the "solo"-part of guitar two under it again:

1 time

e|-------------------------------------------------------------------------|
B|-------------------------------------------------------------------------|
G|-------------------------------------------------------------------------|
D|--5--5-5--5-7--9--9--------5--5-5--5-5-5---------------------------------|
A|--5--5-5--5-7--9--9--5--5--5--5-5--5-5-5-9--9-9--9-9-9-------------------|
D|--5--5-5--5-7--9--9--4--4--5--5-5--5-5-5-8--8-8--8-8-8-------------------|

Guitar 2:

Does that "solo" part again:

e|-------------------------------------------------------------------------|
B|-------------------------------------------------------------------------|
G|-------------------------------------------------------------------------|
D|---------4h5p4-------------7--5-4---------4-------------2-5-4-2----------|
A|--5--4-5-------7-5--5--4-5---------5--4-5----5-4--2h4h5---------5--------|
D|-------------------------------------------------------------------------|

CHORUS:

Note: Let the chords with an # under it ring

Guitar 1&2 first time(chorus):

Note: Now don't let the chords ring but do triplets between them(fastpicking, you know
i mean).

Repeat one time:

e|-------------------------------------------------------------------------|
B|-------------------------------------------------------------------------|
G|-------------------------------------------------------------------------|
D|9--9-9-7-9--7--2--2-2-0-2--0--9--9-9-7-9--7--5--5-5--5-5-5---------------|
A|9--9-9-7-9--7--2--2-2-0-2--0--9--9-9-7-9--7--5--5-5--5-5-5-4--4-4-4-5----|
D|9--9-9-7-9--7--2--2-2-0-2--0--9--9-9-7-9--7--5--5-5--5-5-5-5--5-5-5-5----|

Then guitar 1&2:

Repeat 2 times:

e|-------------------------------------------------------------------------|
B|-------------------------------------------------------------------------|
G|-------------------------------------------------------------------------|
D|9--9-9-7-9--7--2--2-2-0-2--0--9--9-9-7-9--7--5--5-5--5-5-5---------------|
A|9--9-9-7-9--7--2--2-2-0-2--0--9--9-9-7-9--7--5--5-5--5-5-5-4--4-4-4-5----|
D|9--9-9-7-9--7--2--2-2-0-2--0--9--9-9-7-9--7--5--5-5--5-5-5-5--5-5-5-5----|
              #              #              #

Finish with:

Guitar one:

Note: # = let ring

e|-------------------------------------------2-2-2-2-2-2-2-----------------|
B|-------------------------------------------2-2-2-2-2-2-2-----------------|
G|-------------------------------------------4-4-4-4-4-4-4-----------------|
D|--5--5--7--7--9--9--2--2--5--5--7--7--9----4-4-4-4-4-4-4-----------------|
A|--5--5--7--7--9--9--2--2--5--5--7--7--9----2-2-2-2-2-2-2-----------------|
D|--5--5--7--7--9--9--2--2--5--5--7--7--9----------------------------------|
                                                         #
Guitar 2:

e|-------------------------------------------2-2-2-2-2-2-2-----------------|
B|-------------------------------------------2-2-2-2-2-2-2-----------------|
G|-------------------------------------------4-4-4-4-4-4-4-----------------|
D|--0--0--2--2--4--4--2--2--0--0--2--2--4----4-4-4-4-4-4-4-----------------|
A|--2--2--4--4--5--5--2--2--2--2--4--4--5----2-2-2-2-2-2-2-----------------|
D|--------------------2--2-------------------------------------------------|
                                                         #


                                    THE END

| /  slide up
| \  slide down
| h  hammer-on
| p  pull-off
| ~  vibrato
| +  harmonic
| x  Mute note
| *  Artificial Harmonic
| Pm Palm Muted
| #  Let Ring
===============================================================================
Tap to rate this tab
# A B C D E F G H I J K L M N O P Q R S T U V W X Y Z