Song name
# A B C D E F G H I J K L M N O P Q R S T U V W X Y Z

Four Year Strong - Wrecked Em Damn Near Killed Em tab

Wrecked 'Em?! Damn Near Killed 'Em! - Rise or Die Trying!
 by Four Year Strong

tabbed by george8392

i just posted this up because the one i saw earlier seemed wrong. i had it in powertab 
you can see), so i just exported. will finish in the future.

rate, please and thank you.


 Intro
  Q=180
 4/4
  Gtr I
|----------------|-----------------|------------------|------------|
|----------------|-----------------|------------------|------------|
|-14-------------|-(14)------------|-(14)-------------|-(14)-------|
|----------------|-----------------|------------------|------------|
|----------------|-----------------|------------------|------------|
|----------------|-----------------|------------------|------------|
|
| Gtr II
|----------------|-----------------|------------------|------------|
|----------------|-----------------|------------------|------------|
|----------------|-----------------|------------------|------------|
|--4-------------|-----------------|------------------|------------|
|--5-----10-10\5-|---5------9-9-10-|--10---x-9-9--x-7-|---7---7----|
|--4------9--9\4-|---4------7-7--9-|---9---x-7-7--x-5-|---5---5----|


|------------------|----------------------|
|-15----------15---|-(15)------15---------|
|------14----------|------14--------14----|
|------------------|----------------------|
|------------------|----------------------|
|------------------|----------------------|
|
|------------------|----------------------|
|------------------|----------------------|
|------------------|----------------------|
|--4---------------|----------------------|
|--5-------10-10\5-|---5----------9--9-10-|
|--4--------9--9\4-|---4----------7--7--9-|


|------------------|--------------------|
|-15----------15---|-(15)-------15------|
|-------14---------|------14--------14--|
|------------------|--------------------|
|------------------|--------------------|
|------------------|--------------------|
|
|------------------|--------------------|
|------------------|--------------------|
|------------------|--------------------|
|------------------|--------------------|
|-10--x--9-9---x-7-|---7-----7----------|
|--9--x--7-7---x-5-|---5-----5----------|


|------------------|----------------------|
|-15----------15---|-(15)------15---------|
|------14----------|------14--------14----|
|------------------|----------------------|
|------------------|----------------------|
|------------------|----------------------|
|
|------------------|----------------------|
|------------------|----------------------|
|------------------|----------------------|
|--4--------9--9\4-|---4----------7--7--9-|
|--5-------10-10\5-|---5----------9--9-10-|
|--4--------9--9\4-|---4----------7--7--9-|


|------------------|--------------------|
|-15----------15---|-(15)-------15------|
|-------14---------|------14--------14--|
|------------------|--------------------|
|------------------|--------------------|
|------------------|--------------------|
|
|------------------|--------------------|
|------------------|--------------------|
|------------------|--------------------|
|--9--x--7-7---x-5-|---5-----5----------|
|-10--x--9-9---x-7-|---7-----7----------|
|--9--x--7-7---x-5-|---5-----5----------|


|------------------|----------------------|------------------|------------||
|-15----------15---|-(15)------15---------|-15----------15---|-(15)-------||
|------14----------|------14--------14----|-------14---------|------------||
|------------------|----------------------|------------------|------------||
|------------------|----------------------|------------------|------------||
|------------------|----------------------|------------------|------------||
|
|------------------|----------------------|------------------|------------||
|------------------|----------------------|------------------|------------||
|------------------|----------------------|------------------|------------||
|--4--------9--9\4-|---4----------7--7--9-|--9--x--7-7---x-5-|---5---5----||
|--5-------10-10\5-|---5----------9--9-10-|-10--x--9-9---x-7-|---7---7----||
|--4--------9--9\4-|---4----------7--7--9-|--9--x--7-7---x-5-|---5---5----||


 Verse
  Gtr I
|------------------|-----------------|----------------|---------|
|------------------|-----------------|----------------|---------|
|------------------|-----------------|----------------|---------|
|-4---------9--9\4-|-4--------7-7--9-|--9--x-7-7--x-5-|-5--5----|
|-5--x-x-x-10-10\5-|-5--x-x-x-9-9-10-|-10--x-9-9--x-7-|-7--7----|
|-4--x-x-x--9--9\4-|-4--x-x-x-7-7--9-|--9--x-7-7--x-5-|-5--5----|


|------------------|-----------------|----------------|---------|
|------------------|-----------------|----------------|---------|
|------------------|-----------------|----------------|---------|
|-4---------9--9\4-|-4--------7-7--9-|--9--x-7-7--x-5-|-5--5----|
|-5--x-x-x-10-10\5-|-5--x-x-x-9-9-10-|-10--x-9-9--x-7-|-7--7----|
|-4--x-x-x--9--9\4-|-4--x-x-x-7-7--9-|--9--x-7-7--x-5-|-5--5----|


  Gtrs I, II
|------------------|-----------------|----------------|---------|
|------------------|-----------------|----------------|---------|
|------------------|-----------------|----------------|---------|
|-4---------9--9\4-|-4--------7-7--9-|--9--x-7-7--x-5-|-5--5----|
|-5--x-x-x-10-10\5-|-5--x-x-x-9-9-10-|-10--x-9-9--x-7-|-7--7----|
|-4--x-x-x--9--9\4-|-4--x-x-x-7-7--9-|--9--x-7-7--x-5-|-5--5----|


|------------------|-----------------|----------------|-----------|--------||
|------------------|-----------------|----------------|-----------|--------||
|------------------|-----------------|----------------|-----------|--------||
|-4---------9--9\4-|-4--------7-7--9-|--9--x-7-7--x-5-|-5--5------|-(5)----||
|-5--x-x-x-10-10\5-|-5--x-x-x-9-9-10-|-10--x-9-9--x-7-|-7--7------|-(7)----||
|-4--x-x-x--9--9\4-|-4--x-x-x-7-7--9-|--9--x-7-7--x-5-|-5--5------|-(5)----||


 Chorus
  D5                B5    E5      G5                    B5    A5      D5
|-----------------|-----------------|-----------------|-----------------|
|-----------------|-----------------|-----------------|-----------------|
|-----------------|-4-4-4-----------|-----------------|-4-4-4-2-2-2-2---|
|-0-0-0-0-0-0-0-0-|-4-4-4-2-2-2-2-5-|-5-5-5-5-5-5-5-5-|-4-4-4-2-2-2-2-0-|
|-0-0-0-0-0-0-0-0-|-2-2-2-2-2-2-2-5-|-5-5-5-5-5-5-5-5-|-2-2-2-0-0-0-0-0-|
|-0-0-0-0-0-0-0-0-|-------2-2-2-2-5-|-5-5-5-5-5-5-5-5-|---------------0-|


  D5                B5    E5      G5                    B5    A5      D5
|-----------------|-----------------|-----------------|-----------------|
|-----------------|-----------------|-----------------|-----------------|
|-----------------|-4-4-4-----------|-----------------|-4-4-4-2-2-2-2---|
|-0-0-0-0-0-0-0-0-|-4-4-4-2-2-2-2-5-|-5-5-5-5-5-5-5-5-|-4-4-4-2-2-2-2-0-|
|-0-0-0-0-0-0-0-0-|-2-2-2-2-2-2-2-5-|-5-5-5-5-5-5-5-5-|-2-2-2-0-0-0-0-0-|
|-0-0-0-0-0-0-0-0-|-------2-2-2-2-5-|-5-5-5-5-5-5-5-5-|---------------0-|


  D5                B5    E5      G5                    D5    B5      E5
|-----------------|-----------------|-----------------|-----------------|
|-----------------|-----------------|-----------------|-----------------|
|-----------------|-4-4-4-----------|-----------------|-------4-4-4-4---|
|-0-0-0-0-0-0-0-0-|-4-4-4-2-2-2-2-5-|-5-5-5-5-5-5-5-5-|-0-0-0-4-4-4-4-2-|
|-0-0-0-0-0-0-0-0-|-2-2-2-2-2-2-2-5-|-5-5-5-5-5-5-5-5-|-0-0-0-2-2-2-2-2-|
|-0-0-0-0-0-0-0-0-|-------2-2-2-2-5-|-5-5-5-5-5-5-5-5-|-0-0-0---------2-|


  E5                G5    D5      B5                    N.C.    A5
|-----------------|-----------------|-----------------|--------------||
|-----------------|-----------------|-----------------|--------------||
|-----------------|---------------4-|-4-4-4-4-4-4-4-4-|-x-x-x-x-2----||
|-2-2-2-2-2-2-2-2-|-5-5-5-0-0-0-0-4-|-4-4-4-4-4-4-4-4-|-x-x-x-x-2----||
|-2-2-2-2-2-2-2-2-|-5-5-5-0-0-0-0-2-|-2-2-2-2-2-2-2-2-|-x-x-x-x-0----||
|-2-2-2-2-2-2-2-2-|-5-5-5-0-0-0-0---|-----------------|--------------||


 Post-Chorus
|---------------|--------------|----------------|---------------|
|---------------|--------------|----------------|---------------|
|---------------|--------------|----------------|---------------|
|-4------9--9\4-|-4-----7-7--9-|--9--x-7-7--x-5-|-5--5--5-5-5-5-|
|-5-----10-10\5-|-5-----9-9-10-|-10--x-9-9--x-7-|-7--7--7-7-7-7-|
|-4------9--9\4-|-4-----7-7--9-|--9--x-7-7--x-5-|-5--5--5-5-5-5-|


|---------------|------------|----------------|---------||
|---------------|------------|----------------|---------||
|---------------|------------|----------------|---------||
|-4------9--9\4-|-4-----7-7--|--9--x-7-7--x-5-|-5--5----||
|-5-----10-10\5-|-5-----9-9--|-10--x-9-9--x-7-|-7--7----||
|-4------9--9\4-|-4-----7-7--|--9--x-7-7--x-5-|-5--5----||

***************************************************************************************
* Generated using Power Tab Editor by Brad Larsen - http://powertab.guitarnetwork.org *
***************************************************************************************
Tap to rate this tab
# A B C D E F G H I J K L M N O P Q R S T U V W X Y Z