Song name
# A B C D E F G H I J K L M N O P Q R S T U V W X Y Z

Four Year Strong - Abandon Ship Or Abandon All Hope tab

Basically the whole intro is palm mute.

e ---------------------------------------------------------------|
b ---------------------------------------------------------------|
g ---------------------------------------------------------------| 
d -------------------0--000--000---------------------------------|  
a --12/---0---0---0h2---000--000-------------0-----0---0--4h5p4--| 
d 0-----0---0---0-------000--000-2~p0-2p0--2---2-0---0-----------|

e ----------------------------------------------------------|
b ----------------------------------------------------------|
g ----------------------------------------------------------| 
d ----------------0--000--000-------------------------------|  
a -----0---0---0h2---000--000-------------0-----0---0--4----| 
d ---0---0---0-------000--000-2~p0-2p0--2---2-0---0---------|


 
Tap to rate this tab
# A B C D E F G H I J K L M N O P Q R S T U V W X Y Z