Song name
# A B C D E F G H I J K L M N O P Q R S T U V W X Y Z

Four Year Strong - Roll To Me tab

-------------------------------------------------------------------------------
			     SONG NAME - Band Name
-------------------------------------------------------------------------------
Tabbed by:Zack Holden
Email:zackdh1992@yahoo.com
myspace.com/zackdh92
Tuning:Drop D

This is just the verse but u can use the same chords in the intro and whatnot!!!!

. = P.M
~ = let ring

Opening Chord
e|-2-2---2-------------------|
B|-3---3---3-----------------|
G|-2-------------------------|
D|-0-------------------------|
A|---------------------------|
D|---------------------------|

Intro
e|------------------------------------------------------------------------------|
B|------------------------------------------------------------------------------|
G|------------------------------------------------------------------------------|
D|-4-4--44-0-------44--4--44--44-0------------4---------------------------------|
A|-4-4--11-0--4-4--11--4--44--11-0-4-4--4444--4---------------------------------|
D|-4-4--------6-6------4--44-------6-6--6666--6---------------------------------|

Verse
e|---------------------------------------------------------------------------|
B|---------------------------------------------------------------------------|
G|---------------------------------------------------------------------------|
D|-4---44-0-----44-0--4---44-0-----------------------------------------------|
A|-4---11-0--4--11-0--4---11-0--4--4444-4------------------------------------|
D|-4---------6--------4---------6--6666-6------------------------------------|
                                   .... ~

e|------------------------------------------------------------------------------|
B|------------------------------------------------------------------------------|
G|------------------------------------------------------------------------------|
D|-4---44-0-----44-0--4-4--44-0-------------------------------------------------|
A|-4---11-0--4--11-0--4-4--11-0--4--44444---------------------------------------|
D|-4---------6--------4-4--------6--66666---------------------------------------|
                      ^More Strumming When u get to here like a Buildup
Tap to rate this tab
# A B C D E F G H I J K L M N O P Q R S T U V W X Y Z