Song name
# A B C D E F G H I J K L M N O P Q R S T U V W X Y Z

Four Year Strong - Wrecked Em Damn Near Killed Em tab

There are no 1's in this song only 11's, Its in D standard not drop D.
D
A
F
C
G
D

Enjoy, sounds really good to me and this is my first tab!

Intro & Verse

D|--------------------------------------------|
A|--------------------------------------------|
F|--------------------------------------------|  x8
C|-2---6-6------------------------------------|
G|-2---4-4--4--9-9--11--11\9--9\7-7-7-77------|
D|-0--------6--7-7--9---9-\7--7\5-5-5-55------|


Chorus

D|--------------------------------------------|
A|--------------------------------------------|
F|--------------------------------------------|  x3
C|-22222222-444-------------------------------|
G|-22222222-666-77777-77777777-111111-99999---|
D|-00000000-----44444-55555555-9-9-9--77777---|

End With

D|--------------------------------------------|
A|--------------------------------------------|
F|--------------------------------------------|  x1
C|--------------22----------------------------|
G|-4-4-4--6-7-7-22--1111111111111111-xxxx-----|
D|-2-2-2--4-5-5-00--9-9-9-9-9-9-9-9--xxxx-----|

Verse

D|--------------------------------------------|
A|--------------------------------------------|
F|--------------------------------------------|  x2
C|-2---6-6------------------------------------|
G|-2---4-4--4--9-9--11--11\9--9\7-7-7-77------|
D|-0--------6--7-7--9---9-\7--7\5-5-5-55------|        

2nd time end with

D|--------------------------------------------|
A|--------------------------------------------|
F|--------------------------------------------|  x1
C|-2---6-6----------------------------2~------|
G|-2---4-4--4--9-9--11--11\9--9\7-7---2~------|
D|-0--------6--7-7--9---9-\7--7\5-5---0~------| 

A little break

Verse
D|--------------------------------------------|
A|--------------------------------------------|
F|--------------------------------------------|  x1
C|-2---6-6------------------------------------|
G|-2---4-4--4--9-9--11--11\9--9\7-7-7-77------|
D|-0--------6--7-7--9---9-\7--7\5-5-5-55------|

Changed Verse
D|-----------------------------------------------|
A|-----------------------------------------------|
F|-----------------------------------------------|  x1
C|-2---6-6---------------------------------------|
G|-2---4-4--4--9-9--11--11\9--9\1111111111111111-|
D|-0--------6--7-7--9---9-\7--7\9-9-9-9-9-9-9-9--|

D|-----------------------------------------------|
A|-----------------------------------------------|
F|-----------------------------------------------|  x1
C|-2---9-9--9-9----------------2--9-9------------|
G|-2---7-7--7-7------7---7-----2--7-7------------|
D|-0-------------7-9--9---9-7--0-----------------|

Followed by

D|-----------------------------------------------|
A|-----------------------------------------------|
F|-----------------------------------------------|  x1
C|-----------------------------------------------|
G|-----------------------------------------------|
D|-444-555-777-999-111111111----1212121212112----|
                               |. . . . . . .| 
                       (Figure out strum pattern yourself)
Chorus x1

D|--------------------------------------------|
A|--------------------------------------------|
F|--------------------------------------------|  x1
C|-22222222-444-------------------------------|
G|-22222222-666-77777-77777777-111111-99999---|
D|-00000000-----44444-55555555-9-9-9--77777---|

Then

D|--------------------------------------------|
A|--------------------------------------------|
F|--------------------------------------------|  x1
C|--------------22----------------------------|
G|-4-4-4--6-7-7-22--1111111111111111-xxxxx----|
D|-2-2-2--4-5-5-00--9-9-9-9-9-9-9-9--xxxxx----|

Breakdown

         |Killswitch Here|       
D|--------------12~---------------------------|
A|--------------12~---------------------------|
F|--------------------------------------------|  x1
C|--2-2---2-2---------------------------------|
G|--2-2---2-2---------------------------------|
D|--0-0---0-0---------------------------------|
    . .   . .

D|-----------------------------------------------|
A|-----------------------------------------------|
F|-----------------------------------------------|  x1
C|-2---9-9--9-9----------------2--9-9------------|
G|-2---7-7--7-7------7---7-----2--7-7--7---------|
D|-0-------------7-9--9---9-7--0-------5---------|

Little Solo Thingy

D|--------12----12----14bu16-14-12---------------|
A|--12-14----14----14--------------14-17-14-12---| not too sure about this part
F|-----------------------------------------------|
C|-----------------------------------------------|
G|-----------------------------------------------|
D|-----------------------------------------------|


Chorus

D|--------------------------------------------|
A|--------------------------------------------|
F|--------------------------------------------|  x3
C|-22222222-444-------------------------------|
G|-22222222-666-77777-77777777-111111-99999---|
D|-00000000-----44444-55555555-9-9-9--77777---|

Chrous Part 2

D|--------------------------------------------|
A|--------------------------------------------|
F|--------------------------------------------|  x1
C|--------------22----------------------------|
G|-4-4-4--6-7-7-22--1111111111111111-xxxxx----|
D|-2-2-2--4-5-5-00--9-9-9-9-9-9-9-9--xxxxx----|

Intro again as outro

D|--------------------------------------------|
A|--------------------------------------------|
F|--------------------------------------------|  x1
C|-2---6-6------------------------------------|
G|-2---4-4--4--9-9--11--11\9--9\7-7~----------|
D|-0--------6--7-7--9---9-\7--7\5-5~----------|


Tabbed by elleild and no other
Tap to rate this tab
# A B C D E F G H I J K L M N O P Q R S T U V W X Y Z