Song name
# A B C D E F G H I J K L M N O P Q R S T U V W X Y Z

Four Year Strong - Heroes Get Remembered Legends Never Die tab

Key- D

~=vibrato
h=hammer on
s=slide
pm=palm mute
*=pinch harmonic
intro/chorus
e ----------------------------------------------------------------|
b ----------------------------------------------------------------|
g ----------------------------------------------------------------|
d ----------------------------------------------------------------|
a -------------9-7-----9h10-9----------------7--5---5---7h5-------|
d 00--0-00--------00------------00--0-00--0-------5---5-----5-----|

verse one and 2

(who ever isn't singing plays this)
e ----------------------------------------------------|
b ----------------------------------------------------|
g ----------------------------------------------------|
d 000--0---0-0-0-----000--0---0-0-0-------------------|
a 000--0---0-0-0-----000--0---0-0-0-------------------|
d 000--0---0-0-0-----000--0---0-0-0---4h5-7-5-44-5----|

e ----------------------------------------------------|
b ----------------------------------------------------|
g ----------------------------------------------------|
d 000-------00---12*-00--0000---000--0----------------|
a 000---9*--00-------00--0000---000--0----------------|
d 000-------00-------00--0000---000--0---4h5-7-5-4-0--|

(who ever is singing plays this)(and this is where you come in...)
e ----------------------------------------------------|
b ----------------------------------------------------|
g -777777777777-6666-4444444444444444-----------------|
d -xxxxxxxxxxxx-xxxx-xxxxxxxxxxxxxxxx-----------------|
a -555555555555-4444-2222222222222222-----------------|
d ----------------------------------------------------|

pre chorus
e ------------------------------------|
b ------------------------------------|
g ------------------------------------|
d 5----7----9----7-5----7---2--4--5---|
a 5----7----9----7-5----7---2--4--5---|
d 5----7----9----7-5----7---2--4--5---|

guitar 1
e-------------------------10----------10-|
b-------------------10----------10-------|
g-11--9--7--6--7-77----77----77----77----|
d-x---x--x--x--x-------------------------|
a-9---7--5--4--5-------------------------|
d----------------------------------------|


guitar 2
e ----------------------------------------------------|
b ----------------------------------------------------|
g -777777777777-6666-4444444444444444-----------------|
d -xxxxxxxxxxxx-xxxx-xxxxxxxxxxxxxxxx-----------------|
a -555555555555-4444-2222222222222222-----------------|   this is play twice
d ----------------------------------------------------|

e ----------------------------------------------------|
b ----------------------------------------------------|
g ----------------------------------------------------|
d 000--0---0-0-0-----000--0---0-0-0-------------------|
a 000--0---0-0-0-----000--0---0-0-0-------------------|
d 000--0---0-0-0-----000--0---0-0-0---4h5-7-5-44-5----|

e ----------------------------------------------------|
b ----------------------------------------------------|
g ----------------------------------------------------|
d 000-------00---12*-00--0000---000--0----------------|
a 000---9*--00-------00--0000---000--0----------------|
d 000-------00-------00--0000---000--0---4h5-7-5-4-0--|

breakdown
e--------------|
b--------------|
g--------------|
d-0----16*-----|
a-0--------14*-|
d-0------------|

(im not sure on the pich harmonics but that sorta sounds right)

then chorus 2 more times and your good!
thanks comment and let me know what you think!
Tap to rate this tab
# A B C D E F G H I J K L M N O P Q R S T U V W X Y Z