Song name
# A B C D E F G H I J K L M N O P Q R S T U V W X Y Z

Four Year Strong - This Summer Session tab

ok so this very rough so please post your corenctions.

(7)= eighth note triplets

Rhythm:

e------------------------------------------------------------------------|
b------------------------------------------------------------------------|
g------7-7-----7-7-----7-7-----7-7-----7-7-----7-7-----7-7-(7)--(7)--(7)-|
d------7-7-----7-7-----7-7-----7-7-----7-7-----7-7-----7-7-(7)--(7)--(7)-|
a--5-5-5-5-5-5-5-5-5-5-5-5-5-5-5-5-4-4-4-4-4-4-4-4-4-4-4-4-(7)--(7)--(7)-|
D------------------------------------------------------------------------|

lead:

e---------------------------------------------|
b-----------------------------------7---------|
g---7----7----7----7h9--6----6----6---9---7---|

verse 1

e----------------|
b----------------|
g-7---7-7---7--7-|
d-7---7-7---7--7-|
a-5---7-4---7--5-|
D----------------|


and thats about all i can get right now. so post corections cuz i know this isnt all of it!
Tap to rate this tab
 
# A B C D E F G H I J K L M N O P Q R S T U V W X Y Z