Song name
# A B C D E F G H I J K L M N O P Q R S T U V W X Y Z

Four Year Strong - Heroes Get Remembered Legends Never Die tab

intro/chorus

e ----------------------------|---------------------------------|
b ----------------------------|---------------------------------|
g ----------------------------|---------------------------------|
d 00---00--------00-00--------|-00---00-------------------------|
a 00---00----9-7-00-00-9h10-9-|-00---00----7-5---5---7-5-4------|
d 00---00--------00-00--------|-00---00--------0---0------------|

e ----------------------------|---------------------------------|
b ----------------------------|---------------------------------|
g ----------------------------|-6-6666-4-4-6-6-6-6666-7-7-6-6---|
d 00---00--------00-00--------|-7-7777-4-4-7-7-7-7777-7-7-7-7---|
a 00---00----9-7-00-00-9h10-9-|-4-4444-2-2-4-4-4-4444-5-5-4-4---|
d 00---00--------00-00--------|---------------------------------|


verse
e-----------------------------------------------|
b-----------------------------------------------|
g-----------------------------------------------|
d 0000000---000-----0000000---000---------------|
a 0000000---000-----0000000---000---------------|
d 0000000---000-----0000000---000-4-5-7-5---4-2-|

e---------------------------------------------|
b--------------7*^----------------------------|
g------7*-------------------------------------|
d 0000----000-----0000000---000---------------|
a 0000----000-----0000000---000---------------|
d 0000----000-----0000000---000-4-5-7-5---4-2-|


guitar 1
e---------------------------------------------|
b--------------7*^----------------------------|
g------7*-------------------------------------|
d 0000----000-----0000000---000---------------|
a 0000----000-----0000000---000---------------|
d 0000----000-----0000000---000-4-5-7-5---4-2-|

guitar 2
e---------------------------------|
b33333333333333333333333333333333-|
g77777777777766664444444444446666-|
d---------------------------------|
a---------------------------------|
d---------------------------------|

pre-chorus

e-------------------------------|
b-------------------------------|
g-------------------------------|
d55555555-77777777-99---99---99-|
a55555555-77777777-99---99---99-|
d55555555-77777777-99---99---99-|                       (7)
                                                       (7)
repeat intro/chorus but when you go into the verse, play an A (7)
verse
guitar 1 plays the same thing
guitar 2 plays
e---------------------------------|
b33333333333333333333333333333333-|
g77777777777766664444444444446666-|
d---------------------------------|
a---------------------------------|
d---------------------------------|


pre-chorus
intro/chorus

chorus second time(1:59)
guitar1                       guitar 2
e------------------           e-------------------|
b------------------           b-------------------|
g---------14-14-14-           g-------------------|
d0-0--000----------           d0-0--000-16-16-16--|
a0-0--000----------           a0-0--000-----------|
d0-0--000----------           d0-0--000-----------|

bridge
guitar 1
e---------------------------------|
b33333333333333333333333333333333-|
g77777777777766664444444444446666-|
d---------------------------------|
a---------------------------------|
d---------------------------------|

guitar 2 (only once)
e-14-14-14-17-17-17-14-14-14-17-17-17-14-14-12-12-10-10-10-10-10-10-10-10-|
b-15-15-15-15-15-15-15-15-15-15-15-15-15-15-14-14-12-12-12-12-12-12-12-12-|
g-------------------------------------------------------------------------|
d-------------------------------------------------------------------------|
a-------------------------------------------------------------------------|
d-------------------------------------------------------------------------|

guitar 1 repeats
guitar 2(2:34)
e--------------------------------------------|
b--------------------------------------------|
g--------------------------------------------|
d0-0-000----00-0-0-0---0-0-000---------------|
a0-0-000----00-0-0-0---0-0-000---------------|
d0-0-000----00-0-0-0---0-0-000-4-5-7-5---4-2-|

breakdown
e--------------------|
b--------------------|
g--------------------|
d11--11-11-11-11--11-|
a00--00-00-00-00--00-|
d00--00-00-00-00--00-|

intro/chorus
Tap to rate this tab
 
# A B C D E F G H I J K L M N O P Q R S T U V W X Y Z