Song name
# A B C D E F G H I J K L M N O P Q R S T U V W X Y Z

Four Year Strong - Find My Way Back tab

-------------------------------------------------------------------------------
			     Find My Way Back - Four Year Strong
-------------------------------------------------------------------------------
Tabbed by:Charlie Throckmorton
Email:guitarhero10m@Aol.com

Tuning:DROP D

INTRO
   Lead
e|--------------------------------------8/10/8---------8-8----10--8--------|
B|-----10--8------11-10-8---------------------10-10-11---------------------|
G|-----------10-----------10----x4-------------------------10--------------|
D|-------------------------------------------------------------------------|
A|---8---8------8----------------------------------------------------------|
D|-------------------------------------------------------------------------|
   Rhythm
e|-------------------------------------------------------------------------|
B|-------------------------------------------------------------------------|
G|--555---------------555--------------------------------------------------|
D|--555---888---333---555----x4--------------------------------------------|
A|--777---888---333---333--------------------------------------------------|
D|--------888---333--------------------------------------------------------|
 VERSE                                                              
e|-------------------------------------------------------------------------|
B|-------------------------------------------------------------------------|
G|--22---------------------------------------------------------------------|
D|--00-3-2h3---33-3-2h3------3-5/7---55--3-2h3p2-0-x3----------------------|
A|-------------11---------33---------33------------------------------------|
D|------------------------33-----------------------------------------------|
     4th time
e|-------------------------------------------------------------------------|
B|-------------------------------------------------------------------------|
G|-------------------------------------------------------------------------|
D|--33-3-3p2--33-3-3p2--55-3-3p2--55-3-3p2---------------------------------|
A|--11--------11--------33--------33---------------------------------------|
D|-------------------------------------------------------------------------|
PRE-CHORUS                    4th time
e|-------------------------------------------------------------------------|
B|-------------------------------------------------------------------------|
G|---------------5---------------------------------------------------------|
D|---5---8---3---5---x3-------5---8-----10---------------------------------|
A|---5---8---3---3------------5---8-----10---------------------------------|
D|---5---8---3----------------5---8-----10---------------------------------|
Chorus                             end of 2nd time
e|-------------------------------------------------------------------------|
B|-------------------------------------------------------------------------|
G|--------------55-5-------------------------------------------------------|
D|--88-8--33-3--55-5--55-7---x2--------3h5-5br3---88-8---55-5---00-0-------|
A|--88-8--33-3--33-3--55-7---------3h5------------88-8---55-5---00-0-------|
D|--88-8--33-3--------55-7------------------------88-8---55-5---00-0-------|

e|-------------------------------------------------------------------------|
B|-------------------------------------------------------------------------|
G|----------------55-5-----------------------------------------------------|
D|--88-8---33-3---55-5-----------------------------------------------------|
A|--88-8---33-3---33-3-----------------------------------------------------|
D|--88-8---33-3------------------------------------------------------------|
BRIDGE
e|-------------------------------------------------------------------------|
B|-------------------------------------------------------------------------|
G|-------------------------------------------------5-----------------------|
D|------------------7----------------555/8---333---5-----------------------|
A|------7--------88---8--------x2----555/8---333---3-----------------------|
D|---55--5-7------------10-----------555/8---333---------------------------|

e|-------------------------------------------------------------------------|
B|-------------------------------------------------------------------------|
G|-------------------------------------------------------------------------|
D|---555/7----------------888/10-------------------------------------------|
A|---555/7---7-7h10p8p7---888/10-------------------------------------------|
D|---555/7----------------888/10-------------------------------------------|
ENDING
e|-------------------------------------------------------------------------|
B|-------------------------------------------------------------------------|
G|---777--------------55---------------------------------------------------|
D|---777---88---333---55----x2---------------------------------------------|
A|---555---88---333---33---------------------------------------------------|
D|---------88---333--------------------------------------------------------|

ORDER

Intro x1 (without band)
Intro x4 (with band)
Verse x4
Pre-chorus x4
Chorus x4
Verse x2 (without singing)
Verse x4 (with singing)
Pre-chorus x4
Chorus x4
Bridge x1
Chorus x2
Chorus x6
Ending x2
************************************

| /   slide up
| \   slide down
| h   hammer-on
| p   pull-off
| ~   vibrato
| +   harmonic
| x   Mute note
| b   Bend
| pb  Pre-bend
| br  Bend release
| pbr Pre-bend release
| brb Bend release bend

************************************
Tap to rate this tab
# A B C D E F G H I J K L M N O P Q R S T U V W X Y Z