Song name
# A B C D E F G H I J K L M N O P Q R S T U V W X Y Z

Four Year Strong - Heroes Get Remembered Legends Never Die tab

Heroes Get Remembered, Legends Never Die by Four Year Strong.
From the album "Rise or Die Trying" [Go Buy It!!!]

Just one comment... FOUR YEAR STRONG 4 LIFE!!!
Like this song? Go check out there other songs!!!

Intro|
-----
To be honest, I don't know if only one guitar is playing at the beginning, or both are, 
when I play the song, I play all parts, so just do what you want =p.

e|-----------------------------------------------------------|
B|-----------------------------------------------------------|
G|-----------------------------------------------------------|
D|-------------2-0~----------------4-2~---------------2-0~---|
A|-----------------------------------------------------------|
D|-xx-0-xx-0~--------xx-0-xx-0~---------xx-0-xx-0~-----------|

e|--------------|
B|--------------|
G|--------------|
D|---0---2-0----|
A|-0---0-----4--|
D|--------------|


Verse|
-----
Both Guitars.
e|---------------------------------------|
B|---------------------------------------|
G|---------------------------------------|
D|------0~-0-0--------0~-0-0-------------|
A|------0~-0-0--------0~-0-0-------------|
D|--00000~-0-0----00000~-0-0-4-5-7-5-4~--|
    ....   . .    ....   . .


Pre-Chorus|
----------
Rhythm.
G   A   B
e|-------------------------------|
B|-------------------------------|
G|-------------------------------|
D|-55555555-77777777-99--99--77--|
A|-55555555-77777777-99--99--77--|
D|-55555555-77777777-99--99--77--|

Then...
e|-----------------------------------------------------|
B|-----------------------------------------------------|
G|-----------------------------------------------------|
D|---------------------------------------------7-7-77--|
A|---------------------------------------------7-7-77--|
D|-3p0-000000-4p0-000000-5p0-000000-6p0-000000-7-7-77--|

Chorus|
------

Both Guitars.
e|-----------------------------------------------------------|
B|-----------------------------------------------------------|
G|-----------------------------------------------------------|
D|----0----0~--2-0~-----0----0~----4-2~----0----0~----2-0~---|
A|----0----0~-----------0----0~------------0----0~-----------|
D|-xx-0-xx-0~--------xx-0-xx-0~---------xx-0-xx-0~-----------|

e|--------------|
B|--------------|
G|--------------|
D|---0---2-0----|
A|-0---0-----4--|
D|--------------|

-----------------------------------------
Verse|
-----------------------------------------
Pre-Chorus|
-----------------------------------------
Chorus|
-----------------------------------------
Interlude|
---------

Lead.
e|----------------------------------|
B|-33333333333-2222-00000000000000--|
G|-22222222222-2222-22222222222222--|
D|----------------------------------|
A|----------------------------------|
D|----------------------------------|

Rhythm.
e|--------------|
B|--------------|
G|--------------|
D|----0------0--|
A|----0------0--|
D|-00-0-0000-0--|
   ..   ....

Breakdown|
---------

Both Guitars.
e|----------------                  e|-----------|
B|----------------                  B|-16~--14~--|
G|----------------                  G|-----------|
D|-000-00-00-000--   Repeadetly.    D|-----------|
A|-000-00-00-000--                  A|-----------|
D|-000-00-00-000--                  D|-----------|
   ... .. .. ...


Then back to Chorus.


End!


Tabbed by Brando.
Tap to rate this tab
 
# A B C D E F G H I J K L M N O P Q R S T U V W X Y Z