Four Year Strong - Tonight We Feel Alive On A Saturday tab

Tonight we Feel Alive (on a saturday)

Tabbed by: Zero0912
E-mail: guitar_junkie_0912@yahoo.com

Lead Intro
e|-------------------------------------------------------------------|
b|-------------------------------------------------------------------|
g|-17-16-14-16-14-14-12---17-16-14-16-17-14--171717-161616-12-14-----|
d|-------------------------------------------------------------------|
a|-15-14-12-14-12-12-10---15-14-12-14-15-12--151515-141414-10-12-----|
d|-------------------------------------------------------------------|

Rhythm Intro
e|--------------------------------------------------xx-xxx-xxx------|
b|--------------------------------------------------xx-xxx-xxx------|
g|-2222-5555-----------5555-----------5555-------2--xx-xxx-xxx------|
d|-2222-5555-3333-5555-5555-5555-3333-5555-5555--2--xx-xxx-xxx------|
a|-0000-3333-3333-5555-3333-5555-3333-3333-5555--0--xx-xxx-xxx------|
d|-----------3333-5555------5555-3333------5555-----xx-xxx-xxx------|

Verse
e|----------------------------------------|
b|----------------------------------------|
g|----------------------------------------|
d|-7~---------3~---7---5------------------|
a|-7~---------3~---7---5------------------|
d|-7~---------3~---7---5------------------|

e|---------------------------------------------|
b|---------------------------------------------|
g|---------------------------------------------|
d|-0000-0002-3333-3333-7777-7777-5555-5555-----|
a|-0000-0002-3333-3333-7777-7777-5555-5555-----|
d|-0000-0002-3333-3333-7777-7777-5555-5555-----|
   .... .... .... .... .... .... .... ....

Prechorus
e|----------------------------|
b|----------------------------|
g|----------------------------|
d|--3------2-----3-----6------|
a|--3------3-----3-----7------|
d|--3------2-----3-----6------|

Chorus
e|--------------------------------------------------xx-xxx-xxx------|
b|--------------------------------------------------xx-xxx-xxx------|
g|-2222-5555-----------5555-----------5555-------2--xx-xxx-xxx------|
d|-2222-5555-3333-5555-5555-5555-3333-5555-5555--2--xx-xxx-xxx------|  x2
a|-0000-3333-3333-5555-3333-5555-3333-3333-5555--0--xx-xxx-xxx------|
d|-----------3333-5555------5555-3333------5555-----xx-xxx-xxx------|

repeat intro
repeat verse
repeat prechorus
repeat chorus

bridge
e|---------|---8-7----7------8-7----7-8----8-7--------|
b|---------|-------10---10-8-----10-----10-----8-10---|
g|---------|------------------------------------------|
d|---------|------------------------------------------|
a|--5*-----|------------------------------------------|
d|---------|------------------------------------------|

Repeat pre chorus
repeat chorus
repeat intro
Tap to rate this tab
 
# A B C D E F G H I J K L M N O P Q R S T U V W X Y Z