Song name
# A B C D E F G H I J K L M N O P Q R S T U V W X Y Z

Four Year Strong - Catastrophe tab

Okay, so I didnt really see any good tabs for this song so here it goes.

The tuning is like this:  D
                          A
                          F
                          C
                          G
                          D

Intro

This is the intro for alan. Play the first half twice and then Dan will come in. Then 
the whole thing two more times.
----------------------------------0--------|
----2--0-----2--0-----2--0-----2----0------|
-----2---2----2---2----2---2----2----------|
------2---2----2---2----2---2----2---2-----|
-------------------------------------------|
-------------------------------------------|

Then Dan comes in with this. This is sort of the rhythm but you can figure it out.
------------------------------------------|
------------------------------------------|
---------------------------------444-7-777|
-777/4-444--777/4-444--777/4-44--444-7-777|
-777/4-444--777/4-444--777/4-44--222-5-555|
-550/2-222--550/2-222--550/2-22-----------|
Play this once and then it changes a bit.

-------------------------------------------|
-------------------------------------------|
----------------------------------444-7-777|
-777/4-444--777/4-444--444/7-777--444-7-777|
-777/4-444--777/4-444--444/7-777--222-5-555|
-550/2-222--550/2-222--222/5-555-----------|
Play this whole thing a couple times.

Verse

This is played by the bass in the recorded song, but Dan plays this when hes playing acoustic.
------------------------------------------|
------------------------------------------|
---------------------------------444-7-777|
-777/4-444--777/4-444--777/4-44--444-7-777|
-777/4-444--777/4-444--777/4-44--222-5-555|
-550/2-222--550/2-222--550/2-22-----------|

-------------------------------------------|
-------------------------------------------|
----------------------------------444-7-777|
-777/4-444--777/4-444--444/7-777--444-7-777|
-777/4-444--777/4-444--444/7-777--222-5-555|
-550/2-222--550/2-222--222/5-555-----------|
This is played once while Alan plays:
----------------------------------0--------|
----2--0-----2--0-----2--0-----2----0------|
-----2---2----2---2----2---2----2----------|
------2---2----2---2----2---2----2---2-----|
-------------------------------------------|
-------------------------------------------|
and the second time
----------------------------------0--------|
----2--0-----------------------2----0------|
-----2---2----------------------2----------|
------2---2~~~~~~~~~~~~~~~~~~----2---2-----|
-------------------------------------------|
-------------------------------------------|

Pre Chorus

Dan:
----------------------------------------|
----------------------------------------|
-----------444-7-777-----------444-7-777|
-777/4-44--444-7-777-777/4-44--444-7-777|
-777/4-44--222-5-555-777/4-44--222-5-555|
-550/2-22------------550/2-22-----------|

-----------------------------------------|----------------|
-----------------------------------------|----------------|
-----------444-7-777-----------444-7-777-|----------------|
-777/4-44--444-7-777-444/7-77--444-7-777-|-99-99-7---2~~XX|
-777/4-44--222-5-555-444/7-77--222-5-555-|-99-99-7-7-2~~XX|
-550/2-22------------222/5-55------------|-77-77-5-4-0~~XX|

Alan:
----------------------------------0------|------------0----|
----2--0-----2--0-----2--0-----2----0----|2--0-----2----0--|
-----2---2----2---2----2---2----2--------|-2---2----2------|
------2---2----2---2----2---2----2---2---|--2---2----2---2-|
-----------------------------------------|-----------------|
-------------------------------------x2--|-----------------|

Chorus

Dan:
------------------------------------------|
------------------------------------------|
---------------------------------444-7-777|
-777/4-444--777/4-444--777/4-44--444-7-777|
-777/4-444--777/4-444--777/4-44--222-5-555|
-550/2-222--550/2-222--550/2-22-----------|

-------------------------------------------|
-------------------------------------------|
----------------------------------444-7-777|
-777/4-444--777/4-444--444/7-777--444-7-777|
-777/4-444--777/4-444--444/7-777--222-5-555|
-550/2-222--550/2-222--222/5-555-----------|

Alan:
----------------------------------0--------|
----2--0-----2--0-----2--0-----2----0------|
-----2---2----2---2----2---2----2----------|
------2---2----2---2----2---2----2---2-----|
-------------------------------------------|
-------------------------------------------|x2

Verse

Dan:
------------------------------------------|
------------------------------------------|
---------------------------------444-7-777|
-777/4-444--777/4-444--777/4-44--444-7-777|
-777/4-444--777/4-444--777/4-44--222-5-555|
-550/2-222--550/2-222--550/2-22-----------|

-------------------------------------------|
-------------------------------------------|
----------------------------------444-7-777|
-777/4-444--777/4-444--444/7-777--444-7-777|
-777/4-444--777/4-444--444/7-777--222-5-555|
-550/2-222--550/2-222--222/5-555-----------|

Alan:
----------------------------------0--------|
----2--0-----2--0-----2--0-----2----0------|
-----2---2----2---2----2---2----2----------|
------2---2----2---2----2---2----2---2-----|
-------------------------------------------|
-------------------------------------------|

----------------------------------0--------|
----2--0-----------------------2----0------|
-----2---2----------------------2----------|
------2---2~~~~~~~~~~~~~~~~~~----2---2-----|
-------------------------------------------|
-------------------------------------------|

Pre Chorus

Dan:
----------------------------------------|
----------------------------------------|
-----------444-7-777-----------444-7-777|
-777/4-44--444-7-777-777/4-44--444-7-777|
-777/4-44--222-5-555-777/4-44--222-5-555|
-550/2-22------------550/2-22-----------|

-----------------------------------------|------------------|
-----------------------------------------|------------------|
-----------444-7-777-----------444-7-777-|------------------|
-777/4-44--444-7-777-444/7-77--444-7-777-|-7-7-7-7--9-9-9-XX|
-777/4-44--222-5-555-444/7-77--222-5-555-|-7-7-7-7--9-9-9-XX|
-550/2-22------------222/5-55------------|-5-5-5-5--7-7-7-XX|

Alan:
----------------------------------0------|------------0----|
----2--0-----2--0-----2--0-----2----0----|2--0-----2----0--|
-----2---2----2---2----2---2----2--------|-2---2----2------|
------2---2----2---2----2---2----2---2---|--2---2----2---2-|
-----------------------------------------|-----------------|
-------------------------------------x2--|-----------------|

Chorus

Dan:
------------------------------------------|
------------------------------------------|
---------------------------------444-7-777|
-777/4-444--777/4-444--777/4-44--444-7-777|
-777/4-444--777/4-444--777/4-44--222-5-555|
-550/2-222--550/2-222--550/2-22-----------|

-------------------------------------------|
-------------------------------------------|
----------------------------------444-7-777|
-777/4-444--777/4-444--444/7-777--444-7-777|
-777/4-444--777/4-444--444/7-777--222-5-555|
-550/2-222--550/2-222--222/5-555-----------|

Alan:
----------------------------------0--------|
----2--0-----2--0-----2--0-----2----0------|
-----2---2----2---2----2---2----2----------|
------2---2----2---2----2---2----2---2-----|
-------------------------------------------|
-------------------------------------------|x2

Breakdown:

Alan:
-------------------------------------------------------------------------|
-------------------------------------------------------------------------|
-------------------------------------------------------------------------|
-77777799-44444444-77777799-44444444-77777799-44444444-77777799-44444444-|
-77777799-44444444-77777799-44444444-77777799-44444444-77777799-44444444-|
-55555577-22222222-55555577-22222222-55555577-22222222-55555577-22222222-|
 xxxxxxxx xxxxxxxx xxxxxxxx xxxxxxxx xxxxxxxx xxxxxxxx xxxxxx

Dan & Alan:
------------------------------------------------------------------------|
------------------------------------------------------------------------|
--------------------------------------------------------4-4-444-7-7-777-|
-77777799-44444444-77777799-44444444-7-7777/9-4-4444444-4-4-444-7-7-777-|
-77777799-44444444-77777799-44444444-7-7777/9-4-4444444-2-2-222-5-5-555-|
-55555577-22222222-55555577-22222222-5-5555/7-2-2222222-----------------|

Chorus x2

Dan:
------------------------------------------|
------------------------------------------|
---------------------------------444-7-777|
-777/4-444--777/4-444--777/4-44--444-7-777|
-777/4-444--777/4-444--777/4-44--222-5-555|
-550/2-222--550/2-222--550/2-22-----------|

-------------------------------------------|
-------------------------------------------|
----------------------------------444-7-777|
-777/4-444--777/4-444--444/7-777--444-7-777|
-777/4-444--777/4-444--444/7-777--222-5-555|
-550/2-222--550/2-222--222/5-555-----------|

Alan:
----------------------------------0--------|
----2--0-----2--0-----2--0-----2----0------|
-----2---2----2---2----2---2----2----------|
------2---2----2---2----2---2----2---2-----|
-------------------------------------------|
-------------------------------------------|x2

Then at the very end, some piano plays:
--------|
-2--0---|
--2---2-|
---2----|
--------|
--------|

Well, thats Catastrophe, if you have any problems or questions, please comment.
Tap to rate this tab
# A B C D E F G H I J K L M N O P Q R S T U V W X Y Z