Four Year Strong - This Summer Session tab

drop d (but it dont sown here)

-------------------------------------------|
-------3-----------------------------------|
-------2-----------------------------------|
-------0-----------------------------------|
-------0-----------------------------------|
-------x-----------------------------------|

this countinues all the song

solo:

-----------5p2-----5p2-----5p2-------------|
-------3p2-----3p2-----3p2-----------------|
-------------------------------------------|
-------------------------------------------|
-------------------------------------------|
-------------------------------------------|

some parts are:

-------------------------------------------|
-------3---2-------3---2-------------------|
---------------2-----------2---------------|
-------------------------------------------|
-------------------------------------------|
-------------------------------------------|

its really hard to figure out
so, sorry =)
Tap to rate this tab
 
# A B C D E F G H I J K L M N O P Q R S T U V W X Y Z