Song name
# A B C D E F G H I J K L M N O P Q R S T U V W X Y Z

Four Year Strong - It Must Really Suck To Be Four Year Strong Right Now tab

Tuning: D standard DGCFAd

d----------------------------------------------------|
A----------------------------------------------------|
F----------------------------------------------------|
C----------------------------------------------------|
G----------------------------------------------------|
D-0000-11h12-00-11h12-0000-11h12-00-11h12-000000-12*-|
  ....       ..       ....       ..       ......

d----------------------------------------------------|
A----------------------------------------------------|
F----------------------------------------------------|
C----------------------------------------------------|
G----------------------------------------------------|
D-0000-11h12-00-11h12-0000-11h12-00-11h12-0000-2-5-4-|
  ....       ..       ....       ..       ....
d------------------------------------------------------|
A------------------------------------------------------|
F------------------------------------------------------|
C------------------------------------------------------|
G----------------------------------------------7---6---|
D-0000-11h12-00-11h12-0000-11h12-00-11h12-0000---9---7-|
  ....       ..       ....       ..       ....


d----------------------------------------------------|
A----------------------------------------------------|
F----------------------------------------------------|
C----------------------------------------------------|
G----------------------------------------------------|
D-0000-11h12-00-11h12-0000-11h12-00-11h12-0000-2-5-4-|
  ....       ..       ....       ..       ....

d------------------------------------------------------|
A------------------------------------------------------|
F------------------------------------------------------|
C------------------------------------------------------|
G----------------------------------------------7---6---|
D-0000-11h12-00-11h12-0000-11h12-00-11h12-0000---9---7-|
  ....       ..       ....       ..       ....
d-----------------------------|
A-----------------------------|
F-----------------------------|
C-----------------------------|
G-------------6--0-6-7-9*-----|
D-2-5-4-0-4-5-7---------------|
Tap to rate this tab
# A B C D E F G H I J K L M N O P Q R S T U V W X Y Z