Song name
# A B C D E F G H I J K L M N O P Q R S T U V W X Y Z

Four Year Strong - Just Drive tab

INTRO
d||------------------------------------------------------------------|
a||------------------------------------------------------------------|
f||------------------------------------------------------------------|
c||------------------------------------------------------------9-----|
g||---11-9-11----11-9-11--11-9-12----11-9-11----11-9-11--11-9--------|    X2
d||-0----------0-------------------9----------9----------------------|

VERSE
d||------------------------------------------------|
a||------------------------------------------------|
f||-------------------------6---6-6---6-6----------|
c||-2---2-2---2-2-----------6---6-6---6-6--x-9-x-9-|
g||-2---2-2---2-2--------2--4---4-4---4-4--x-7-x-7-|
d||-0---0-0---0-0--0-2-4-------------------x-5-x-5-|
    .   . .   . .  . . . v  .   . .   . .

d||------------------------------------------------|
a||------------------------------------------------|
f||-------------------------6---6-6---6-6----------|
c||-2---2-2---2-2-----------6---6-6---6-6--x-8-x-8-|
g||-2---2-2---2-2--------2--4---4-4---4-4--x-6-x-6-|
d||-0---0-0---0-0--0-2-4-------------------x-4-x-4-|
    .   . .   . .  . . . v  .   . .   . .

Pre-Chorus
d||-------------------------------------------|
a||-------------------------------------------|
f||-------------------------------------------|
c||-----4--6----7--6----4--2----2-------------|
g||--------------------------------4----------|         X2
d||-0000-00-0000-00-0000-00-0000-00-----------|
    .... .. .... .. .... .. .... ..

d||------------------------------------|
a||------------------------------------|
f||------------------------------------|
c||-6--6--6--6--6--6--9--9--9--9--9--9-|
g||-6--6--6--4--4--4--7--7--7--7--7--7-|
d||-4--4--4--2--2--2--5--5--5--5--5--5-|

That's All I've been able to figure out, i hope someone else can post a complete tab
Tap to rate this tab
 
# A B C D E F G H I J K L M N O P Q R S T U V W X Y Z