Song name
# A B C D E F G H I J K L M N O P Q R S T U V W X Y Z

Four Year Strong - Just Drive tab

-------------------------------------------------------------------------------
			     Just Drive - Four Year Strong
-------------------------------------------------------------------------------
Tabbed by:Ross123
Email: rossmui@hotmail.com

Tuning:1 step down

Credit to TomB1993 for intro and verse

INTRO
d||------------------------------------------------------------------|
a||------------------------------------------------------------------|
f||------------------------------------------------------------------|
c||------------------------------------------------------------9-----|
g||---11-9-11----11-9-11--11-9-12----11-9-11----11-9-11--11-9--------|    X2
d||-0----------0-------------------9----------9----------------------|

VERSE
d||------------------------------------------------|
a||------------------------------------------------|
f||-------------------------6---6-6---6-6----------|
c||-2---2-2---2-2-----------6---6-6---6-6--x-9-x-9-|
g||-2---2-2---2-2--------2--4---4-4---4-4--x-7-x-7-|
d||-0---0-0---0-0--0-2-4-------------------x-5-x-5-|
    .   . .   . .  . . . v  .   . .   . .

d||------------------------------------------------|
a||------------------------------------------------|
f||-------------------------6---6-6---6-6----------|
c||-2---2-2---2-2-----------6---6-6---6-6--x-9-x-9-|
g||-2---2-2---2-2--------2--4---4-4---4-4--x-7-x-7-|
d||-0---0-0---0-0--0-2-4-------------------x-5-x-5-|


 Pre-Chorus
d||-------------------------------------------|
a||-------------------------------------------|
f||-------------------------------------------|
c||-----4--6----7--6----4--2----2-------------|
g||--------------------------------4----------|         X2
d||-5555-55-5555-55-0000-00-4444-44-----------|
    .... .. .... .. .... .. .... ..

d||------------------------------------|
a||------------------------------------|
f||-13-13-13-13--11-11-11-11--9-9-9-9--|
c||------------------------------------|
g||-11-11-11-11--9--9--9--9---7-7-7-7--|
d||------------------------------------|


Chorus

d||------------------------------------|
a||------------------------------------|
f||--13-11-13---13-11-13--13-14--------|
c||------------------------------------|
g||--11-9--11---11-9--11--11-12--------|
d||0----------0------------------------|

1st and 3rd ending
d||------------------------------------|
a||------------------------------------|
f||------------------------------------|
c||-13--how ever many times x--7-------|
g||-11----------------------x--7-------|
d||-9-----------------------x--5-------|


d||------------------------------------|
a||------------------------------------|
f||------------------------------------|
c||-13--how ever many times -----------|
g||-11---------------------------------|
d||-9-----------------------5-4-5-4-x-5|

Repeat Intro, verse, pre chorus and chorus


Bridge

d||-0-----------------------------------|
a||-0-----------------------------------|
f||-1-----------------------------------|
c||-2--how ever many times -------------|
g||-2-----------------------------------|
d||-0-----------------------------------|


d||----------------------------------------------------|
a||----------------------------------------------------|
f||----------------------------------------------------|   x2
c||----------------------------------------------------|
g||------7-x4-------7-x4-6-x4-4-x4---------------------|
d||-4-x4-------4-x4----------------7-x4-5-x4-----------|


d||-----------------------------------------------|
a||-----------------------------------------------|
f||-----------------------------------------------|
c||-----------------------------------------------|
g||------7-x4-------7-x4-------7-x4------7-x4-----|
d||-5-x4-------5-x4-------7-x4------7-x4----------|


d||----------------------------------------------------|
a||----------------------------------------------------|
f||----------------------------------------------------|
c||----------------------------------------------------|
g||-----7-x4-6-x4-7-x4-9x16(after 8 start bending note)|
d||4-x4------------------------------------------------|


d||----------------------------------------------|
a||----------------------------------------------|
f||----------------------------------------------|
c||-----------------------------------13---------|
g||--11-9--11---11-9--11--11/12-------11---------|
d||0-0--0--0--0-0--0--0---0-----------9----------|


Repeat Chorus and intro
Tap to rate this tab
# A B C D E F G H I J K L M N O P Q R S T U V W X Y Z