Song name
# A B C D E F G H I J K L M N O P Q R S T U V W X Y Z

Four Year Strong - Abandon Ship Or Abandon All Hope tab

Artist: Four Year Strong
Song: Abandon Ship Or Abandon All Hope (Intro)
Tuning: D-Standard

* -Palm mute
h -Hammer on
p -Pull off
^ -Slight bend

| ---------------------------------------------------------------------------|
| ---------------------------------------------------------------------------|
| ---------------------------------------------------------------------------|
| ---------------------------------------------------------------------------|
| --12\----2^---2---2/4-----------------------------2------2-----6h7p6-------|
| 0-----------0---0-----0-0--000--000---2^--0-2-0-2---2-0----0-0-------------|
  *           *   *     *    ***  ***       *   * *   *      * *

| ---------------------------------------------------------------------------|
| ---------------------------------------------------------------------------|
| ---------------------------------------------------------------------------|
| -------------2-------------------------------------------------------------|
| 2---2---2/4-(4)--------------------------2------2-----2--------------------|
| --0---0---------0--000--000---2^-0-2-0-2---2-0----0-0----------------------|
    *   *            ***  ***      *   * *   *      * *


The note is parenthesis just means let the note ring from before. I don't know the 
symbol for letting the note ring. Haha
Tap to rate this tab
# A B C D E F G H I J K L M N O P Q R S T U V W X Y Z