Song name
# A B C D E F G H I J K L M N O P Q R S T U V W X Y Z

Four Year Strong - Wasting Time Eternal Summer tab

-------------------------------------------------------------------------------         
-Wasting Time (Eternal Summer) - Four Year Strong-
-------------------------------------------------------------------------------
Tabbed by: AshSchecter
Email: Ash_d123@hotmail.com

Tuning: Drop C

Just a quick tab, didn't think the tabs on here were correct so this is what I 
figured out and it sounds spot on. 

Intro: 0:00-0:07 (Either palm-muted or normal strumming)        
D|--------------|
A|--------------|
F|--------------|
C|--------------|
G|--------------|
C|---5-x64------|

Verse:
D|--------------------------------------------------------------------|
A|--------------------------------------------------------------------|
F|--------------------------------------------------------------------|
C|--------------------------------------------------------------------| x2
G|--------------------------------------------------------------------|
C|---5x32-----10x32-----7x32------5x32--------------------------------|

Pre-chorus:
D|--------------------------------------------------------------------|
A|--------------------------------------------------------------------|
F|--------------------------------------------------------------------|
C|-----------7----9------------5--------------------------------------|
G|--7---10----------------3-------------------------------------------|
C|--------------------------------------------------------------------|

Chorus:
D|--------------------------------------------------------------------|
A|--------------------------------------------------------------------|
F|-----------------------------------5--------------------------------|
C|---5-----------------------2-------5-x8----7------------------------|
G|---5-(figure out pattern)--2-x8----3-------7-x16--------------------|
C|---5-----------------------2---------------7------------------------|
                                         ^(muted)^

D|------------------|
A|------------------|
F|------------------|
C|------------------|
G|------------------|
C|---5-x64----------|

2nd verse:
D|--------------------------------------------------------------------|
A|--------------------------------------------------------------------|
F|--------------------------------------------------------------------|
C|--------------------------------------------------------------------| x2
G|--------------------------------------------------------------------|
C|---5x32-----10x32-----7x32------5x32--------------------------------|

In the second half of the 2nd verse, this plays.

D|--------------------------------------------------------------------|
A|--------------------------------------------------------------------|
F|---12-x3----11-x3----9-x6-------------------------------------------|
C|--------------------------------------------------------------------| x2
G|--------------------------------------------------------------------|
C|--------------------------------------------------------------------|

Pre-chorus:
D|--------------------------------------------------------------------|
A|--------------------------------------------------------------------|
F|--------------------------------------------------------------------|
C|--------------7---9-----------5-------------------------------------| 
G|----7----10-------------3-------------------------------------------|
C|--------------------------------------------------------------------|

D|--------------------------------------------------------------------|
A|--------------------------------------------------------------------|
F|-------------------------------5------------------------------------|
C|-5-----------------------2-----5-x8-7-------------------------------| 
G|-5-(figure out pattern)--2-x8--3----7-x16-(mute and slowly release)-|
C|-5-----------------------2----------7-------------------------------|

Bridge:
D|--------------------------------------------------------------------|
A|--------------------------------------------------------------------|
F|--5-------7-------------4-------------------------------------------| 
C|--5-x8----7-x8---2------4-x8----------------------------------------| x2
G|--3-------5------2-x8---2-------------------------------------------|
C|-----------------2--------------------------------------------------|

D|--------------------------------------------------------------------|
A|--------------------------------------------------------------------|
F|--5-------7~--------------------------------------------------------|
C|--5-x8----7~----5~--------------------------------------------------| 
G|--3-------5~----5~--------------------------------------------------|
C|----------------5~--------------------------------------------------|

Outro:
D|--------------------------------------------------------------------|
A|--------------------------------------------------------------------|
F|--------------------------------------------------------------------|
C|--5--------10-------7--------5--------------------------------------| 
G|--5-x16----10-x16---7-x16----5-x16----------------------------------|
C|--5--------10-------7--------5--------------------------------------|

************************************

| /   slide up
| \   slide down
| h   hammer-on
| p   pull-off
| ~   vibrato
| +   harmonic
| x   Mute note
| b   Bend
| pb  Pre-bend
| br  Bend release
| pbr Pre-bend release
| brb Bend release bend

************************************
Tap to rate this tab
# A B C D E F G H I J K L M N O P Q R S T U V W X Y Z