Song name
# A B C D E F G H I J K L M N O P Q R S T U V W X Y Z

Four Year Strong - Heroes Get Remembered Legends Never Die tab

-----------------------------------------------------------------------------
        Heroes Get Remembered, Legends Never Die - Four Year Strong
-----------------------------------------------------------------------------
Tabbed by: rthryhorysak
E-mail: rthryhorysak@yahoo.com

Tuning: D Standard (DGCFAD)

This is the most accurate tab that I've seen so far. I have it in Guitar Pro 6 format so 
email if you want that instead. The rhythm is a little hard to figure out but that's 
why the Guitar Pro file would help, if not just listen to the song.

Intro- Guitar 1 Alan
d|-----------------------|-----------------|--------------------------------|
A|-----------------------|-----------------|--------------------------------|
F|-----------------------|-----------------|--------------------------------|
C|------------------6----|------------7--6-|-------------------4--------4---|
G|---------------------9-|-----------------|----------------------7-7-7---7-|
D|-0-0-0--0--0-0-0-------|-0-0-0----0------|--0-0-0--0--0-0-0--------------5|
                                                                    P.M
d|-----------------------|-----------------|--------------------------------|
A|-----------------------|-----------------|--------------------------------|
F|-----------------------|-----------------|--------------------------------|
C|------------------6----|------------7--6-|------------------xx----xx------|
G|---------------------9-|-----------------|------------------xx-77-xx-5-5-5|
D|-0-0-0--0--0-0-0-------|-0-0-0----0------|------------------xx-55-xx-4-5-4|

Guitar 2 Dan
d|-----------------------|-----------------|--------------------------------|
A|-----------------------|-----------------|--------------------------------|
F|-----------------------|-----------------|--------------------------------|
C|-----------------------|-----------------|--------------------------------|
G|-----------------------|-----------------|--------------------------------|
D|-----------------------|-----------------|--------------------------------|

d|-----------------------|-----------------|--------------------------------|
A|-----------------------|-----------------|--------------------------------|
F|-----------------------|-----------------|--------------------------------|
C|-----------------------|-----------------|-xx-1414-xx-12-14-12------------|
G|-----------------------|-----------------|-xx-1515-xx-15-15-15------------|
D|-----------------------|-----------------|-xx------xx---------------------|

Intro 2 Dan and Alan  [x2]
d|-----------------------|-----------------|--------------------------------|
A|-----------------------|-----------------|--------------------------------|
F|-----------------------|-----------------|--------------------------------|
C|------------------6----|------------7--6-|-------------------4--------4---|
G|---------------------9-|-----------------|----------------------7-7-7---7-|
D|-0-0-0--0--0-0-0-------|-0-0-0----0------|--0-0-0--0--0-0-0--------------5|

Verse Guitar 2 Dan  [x2]
d|-----------|--|------------------|-----------------|
A|-----------|--|------------------|-----------------|
F|-----------|--|------------------|-----------9b----|
C|-----------|--|------------------|-----------------|
G|-22222-2-2-|--|-22222-2----------|------7*---------|
D|-00000-0-0-|--|-00000-0-0-457540-|-0000------------|
d|---------------------------------------------------|
A|---------------------------------------------------|
F|---------------------------------------------------|
C|---------------------------------------------------|
G|-2-2-2--22222-2------------------------------------|
D|-0-0-0--00000-0-0-457540---------------------------|


Verse Guitar 1 Alan- come in 2nd time the verse is played (repeat after Dan plays 457540)

d|-00000000000000000000000000000000|
A|-55555555555544442222222222222222|
F|---------------------------------|
C|---------------------------------|
G|---------------------------------|
D|---------------------------------|

Pre-Chorus Guitar 2 Dan

d|--------------------------------|--------------------------------------|
A|--------------------------------|--------------------------------------|
F|--------------------------------|--------------------------------------|
C|--------------------------------|--------------------------------------|
G|-77777777-99999999-11-11--11-11-|-77777777-99999999-4----6----7----999-|
D|-55555555-77777777-9--9----9-9--|-55555555-77777777-2-00-4-00-5-00-777-|

Pre-Chorus Guitar 1 Alan (x2)
(There are spaces in between the 12s so its easier to read

d|-0--0--0--0--0--0--0--0--0--0--0--0--0--0--00-0000000000000000------------|
A|-12-12-12-12-12-12-12-12-12-12-12-12-12-12-77-9999999999999999------------|
F|--------------------------------------------------------------------------|
C|--------------------------------------------------------------------------|
G|--------------------------------------------------------------------------|
D|--------------------------------------------------------------------------|

Chorus Dan & Alan
d|-----------------------|-----------------|--------------------------------|
A|-----------------------|-----------------|--------------------------------|
F|-----------------------|-----------------|--------------------------------|
C|------------------6----|------------7--6-|-------------------4--------4---|
G|---------------------9-|-----------------|----------------------7-7-7---7-|
D|-0-0-0--0--0-0-0-------|-0-0-0----0------|--0-0-0--0--0-0-0--------------5|

d|-----------------------|-----------------|--------------------------------|
A|-----------------------|-----------------|--------------------------------|
F|-----------------------|-----------------|--------------------------------|
C|------------------6----|------------7--6-|-------------------4--------9---|
G|---------------------9-|-----------------|----------------------7-----9---|
D|-0-0-0--0--0-0-0-------|-0-0-0----0------|--0-0-0--0--0-0-0-------000-7---|


Verse Guitar 2 Dan  [x2]
d|-----------|--|------------------|-----------------|
A|-----------|--|------------------|-----------------|
F|-----------|--|------------------|-----------9b----|
C|-----------|--|------------------|-----------------|
G|-22222-2-2-|--|-22222-2----------|------7*---------|
D|-00000-0-0-|--|-00000-0-0-457540-|-0000------------|
d|---------------------------------------------------|
A|---------------------------------------------------|
F|---------------------------------------------------|
C|---------------------------------------------------|
G|-2-2-2--22222-2------------------------------------|
D|-0-0-0--00000-0-0-457540---------------------------|


Verse Guitar 1 Alan- come in 2nd time the verse is played (repeat after Dan plays 457540)

d|-00000000000000000000000000000000|
A|-55555555555544442222222222222222|
F|---------------------------------|
C|---------------------------------|
G|---------------------------------|
D|---------------------------------|

Pre-Chorus Guitar 2 Dan

d|--------------------------------|--------------------------------------|
A|--------------------------------|--------------------------------------|
F|--------------------------------|--------------------------------------|
C|--------------------------------|--------------------------------------|
G|-77777777-99999999-11-11--11-11-|-77777777-99999999-4----6----7----999-|
D|-55555555-77777777-9--9----9-9--|-55555555-77777777-2-00-4-00-5-00-777-|

Pre-Chorus Guitar 1 Alan (x2)
(There are spaces in between the 12s so its easier to read

d|-0--0--0--0--0--0--0--0--0--0--0--0--0--0--00-0000000000000000------------|
A|-12-12-12-12-12-12-12-12-12-12-12-12-12-12-77-9999999999999999------------|
F|--------------------------------------------------------------------------|
C|--------------------------------------------------------------------------|
G|--------------------------------------------------------------------------|
D|--------------------------------------------------------------------------|

Chorus 2 Dan & Alan
d|-----------------------|-----------------|--------------------------------|
A|-----------------------|-----------------|--------------------------------|
F|-----------------------|-----------------|--------------------------------|
C|------------------6----|------------7--6-|-------------------4--------4---|
G|---------------------9-|-----------------|----------------------7-7-7---7-|
D|-0-0-0--0--0-0-0-------|-0-0-0----0------|--0-0-0--0--0-0-0--------------5|

d|-----------------------|-----------------|--------------------------------|
A|-----------------------|-----------------|--------------------------------|
F|-----------------------|-----------------|--------------------------------|
C|------------------6----|------------7--6-|-------------------4--------4---|
G|---------------------9-|-----------------|----------------------7-7-7---7-|
D|-0-0-0--0--0-0-0-------|-0-0-0----0------|--0-0-0--0--0-0-0--------------5|

d|-----------------------|-----------------|--------------------------------|
A|-----------------------|-----------------|--------------------------------|
F|-----------------------|-----------------|--------------------------------|
C|------------------xxxx-|-----------xxxx--|-------------------xxxx------4--|
G|------------------xxxx-|-----------xxxx--|-------------------xxxx---7---7-|
D|-0-0-0--0--0-0-0--xxxx-|-0-0-0-----xxxx--|--0-0-0--0--0-0-0--xxxx--0--0--5|

d|-----------------------|-----------------|--------------------------------|
A|-----------------------|-----------------|--------------------------------|
F|-----------------------|-----------------|--------------------------------|
C|------------------xxxx-|-----------xxxx--|-------------------xxxx------4--|
G|------------------xxxx-|-----------xxxx--|-------------------xxxx---7---7-|
D|-0-0-0--0--0-0-0--xxxx-|-0-0-0-----xxxx--|--0-0-0--0--0-0-0--xxxx--0--0--5|

Soft Breakdown- Guitar 1 Alan (x7)

d|-00000000000000000000000000000000|
A|-55555555555544442222222222222222|
F|---------------------------------|
C|---------------------------------|
G|---------------------------------|
D|---------------------------------|

Soft Breakdown- Guitar 2 Dan
You'll have to listen when Dan comes in because its a little tricky
(Dashes are only there so you can read it better it is strait 8th notes

d|-000-0--00000000-0--000-00-0000000000000--|
A|-999-12-99999999-12-999-77-5555555555454--|
F|------------------------------------------|  x2
C|------------------------------------------|
G|------------------------------------------|
D|------------------------------------------|

Dan adds little harmonics a note her and there but you can figure them out

d|------------------|-----------------|----------------|------------------|
A|------------------|-----------------|----------------|------------------|
F|------------------|-----------------|----------------|------------------|
C|------------------|-----------------|----------------|------------------|
G|-222222222---22-2-|-2222222---------|-2222222---22-2-|-22222222---------|
D|-000000000---00-0-|-0000000--457540-|-0000000---00-0-|-00000000--457540-|

d|------------------|-------------------|---------(3)-----|-----------------|
A|------------------|-------------------|---------(3)-----|-----------------|
F|------------------|-------------------|---------(3)-----|-----------------|
C|------------------|-------------------|-----------------|-----------------|
G|-222222222---22-2-|-2222222\7---------|-2222222----22-2-|-22222222--------|
D|-000000000---00-0-|-0000000----457540-|-0000000----00-0-|-00000000--\12/1-|

Hardcore Breakdown Alan & Dan
(I didn't tab it out because its very simple,you just have to find the harmonics)

Chorus Alan & Dan

d|-----------------------|-----------------|--------------------------------|
A|-----------------------|-----------------|--------------------------------|
F|-----------------------|-----------------|--------------------------------|
C|------------------6----|------------7--6-|-------------------4--------4---|
G|---------------------9-|-----------------|----------------------7-7-7---7-|
D|-0-0-0--0--0-0-0-------|-0-0-0----0------|--0-0-0--0--0-0-0--------------5|

d|-----------------------|-----------------|--------------------------------|
A|-----------------------|-----------------|--------------------------------|
F|-----------------------|-----------------|--------------------------------|
C|------------------6----|------------7--6-|-------------------4--------4---|
G|---------------------9-|-----------------|----------------------7-7-7---7-|
D|-0-0-0--0--0-0-0-------|-0-0-0----0------|--0-0-0--0--0-0-0--------------5|

d|-----------------------|-----------------|--------------------------------|
A|-----------------------|-----------------|--------------------------------|
F|-----------------------|-----------------|--------------------------------|
C|------------------xxx--|------------7--6-|-------------------4--------4---|
G|------------------xxx--|-----------------|----------------------7-7-7---7-|
D|-0-0-0--0--0-0-0--xxx--|-0-0-0----0------|--0-0-0--0--0-0-0--------------5|

d|-----------------------|-----------------|--------------------------------|
A|-----------------------|-----------------|--------------------------------|
F|-----------------------|-----------------|--------------------------------|
C|------------------6----|------------7--6-|-------------------4--------4---|
G|---------------------9-|-----------------|----------------------7-7-7---7-|
D|-0-0-0--0--0-0-0-------|-0-0-0----0------|--0-0-0--0--0-0-0--------------5|

Outro Alan & Dan

d|---------|
A|---------|
F|---------|
C|---------|
G|-222-222-|
D|-000-000-|


************************************

| /   slide up
| \   slide down
| h   hammer-on
| p   pull-off
| ~   vibrato
| +   harmonic
| x   Mute note
| b   Bend
| pb  Pre-bend
| br  Bend release
| pbr Pre-bend release
| brb Bend release bend

************************************
Tap to rate this tab
# A B C D E F G H I J K L M N O P Q R S T U V W X Y Z