Song name
# A B C D E F G H I J K L M N O P Q R S T U V W X Y Z

Four Year Strong - One Step At A Time Acoustic tab

One Step At A Time (Acoustic Version) - Four Year Strong

This is the main / rhythm guitar part. I didn't tab the second guitar part
because chances are, you'll just want to play this song on your own and
you'll only need the main part so here it is :)

Standard Tuning

(0:00)
e|------------------------------------------------------------------------------------------|
B|--------0-----------0-----------1p0--------------------0-----------0--------------0-------|
G|-----------0-----------0-------------0-----0--------------0-----------0--------5----------|7>
D|-----0-----------0-----------0----------------0-----0-----------0-----------0-------------|
A|--------------2-----------3-------------0--------3-----------5-----------7-------------7--|
E|--3---------------------------------------------------------------------------------------|


e|------------------------------------------------------------------------------------------|
B|--------0-----------0-----------1p0--------------------0-----------0--------------0-------|
G|-----------0-----------0-------------0--------0-----------0-----------0--------5----------|7>
D|-----0-----------0-----------0-------------0--------0-----------0-----------0-------------|
A|--------------2-----------3-------------3--------3-----------5-----------7-------------7--|
E|--3---------------------------------------------------------------------------------------|


Sometimes it's hard to say the right thing... (0:12)
e|----------------------------------------------------|
B|----------------------------------------------------|
G|--------0------------------0------------------0-----|
D|-----0-----0------------0-----0------------0-----0--|
A|--3------------------3------------------5-----------|
E|----------------------------------------------------|


Breath in, breath out, it'll be ok... (0:19)
e|----------------------------------------------------------------------------|
B|---------------0------------------------------------0-----------------------|
G|---------0-----------0--------------0---------0-----------0--------------0--|
D|---------------------------------0------------------------------------0-----|
A|--5h7p5------5-----5-----7--7p5--------5h7p5------7-----5-----7--7p5--------|
E|----------------------------------------------------------------------------|


And every year November gets closer... (0:25)
e|----------------------------------------------------|
B|----------------------------------------------------|
G|--------0------------------0------------------0-----|
D|-----0-----0------------0-----0------------0-----0--|
A|--3------------------3------------------5-----------|
E|----------------------------------------------------|


Breath in, breath out, it'll be ok... (0:32)
e|---------------------------------------------------------------------------------|
B|---------------0------------------------------------0----------0-----------------|
G|---------0-----------0--------------0---------0----------------------------------|
D|---------------------------------0-----------------------------------------------|
A|--5h7p5------5-----5-----7--7p5--------5h7p5------5---------5------7p5--5--------|
E|---------------------------------------------------------------------------------|


One step at a time... (0:39)
    G      D      Em     D      C    Cadd9
e|--3------x------x------x------x------x--|
B|--3------7------8------7------5------3--|
G|--0------0------0------0------0------0--|
D|--0------x------x------x------x------2--|
A|--2------5------7------5------3------3--|
E|--3-------------------------------------|


Cuz I know... (0:51)
    G      D    Cadd9  Cm(add9)
e|--3------x------x------x------|
B|--3------7------3------3------|
G|--0------0------0------0------|
D|--0------0------2------1------|
A|--2------5------3------3------|
E|--3---------------------------|


(1:04)
e|-------------------------------------------------------------------------------------------|
B|--------0-----------0-----------1p0--------------------0-----------0--------------0--------|
G|-----------0-----------0-------------0--------0-----------0-----------0--------5-----0-----|7>
D|-----0-----------0-----------0-------------0--------0-----------0-----------0--------------|
A|--------------2-----------3-------------3--------3-----------5-----------7--------------7--|
E|--3----------------------------------------------------------------------------------------|


Sometimes it takes a second to sink in... (1:11)
e|----------------------------------------------------|
B|----------------------------------------------------|
G|--------0------------------0------------------0-----|
D|-----0-----0------------0-----0------------0-----0--|
A|--3------------------3------------------5-----------|
E|----------------------------------------------------|


Breath in, breath out, it'll be ok... (1:17)
e|---------------------------------------|
B|---------------0-----------------------|
G|---------0-----------0--------------0--|  2x
D|---------------------------------0-----|
A|--5h7p5------5-----5-----7--7p5--------|
E|---------------------------------------|


Cuz every year November gets closer... (1:24)
e|----------------------------------------------------|
B|----------------------------------------------------|
G|--------0------------------0------------------0-----|
D|-----0-----0------------0-----0------------0-----0--|
A|--3------------------3------------------5-----------|
E|----------------------------------------------------|


Breath in, breath out, it'll be ok... (1:30)
e|------------------------------------------------------------------------------|
B|---------------0--------------------------------------0-----------------------|
G|---------0-----------0--------------0-----------0-----------0-----------------|
D|---------------------------------0--------------------------------------------|
A|--5h7p5------5-----5-----7--7p5----------5h7p5------5-----5-----7--7p5--5-----|
E|------------------------------------------------------------------------------|


One step at a time... (1:37)
    G      D      Em     D      C    Cadd9
e|--3------x------x------x------x------x--|
B|--3------7------8------7------5------3--|
G|--0------0------0------0------0------0--|
D|--0------x------x------x------x------2--|
A|--2------5------7------5------3------3--|
E|--3-------------------------------------|


Cuz I know... (1:50)
    G      D    Cadd9  Cm(add9)
e|--3------x------x------x------|
B|--3------7------3------3------|
G|--0------0------0------0------|
D|--0------0------2------1------|
A|--2------5------3------3------|
E|--3---------------------------|


(2:02)
e|--------------------------------------------------|
B|--------------------------------------------------|
G|--------0--------0--------0--------0--------0-----|  2x
D|-----0-----0--------0--------0--------0--------0--|
A|--------------------------------------------------|
E|--3-----------3--------3--------3--------3--------|


(2:09)                   I'll never forget the day...
e|---------------------------------------------------------------------------------------------|
B|---------------------------------------------------------------------------------------------|
G|-----0--------0--------0--------0--------0----------0--------0----------0--------0--------0--|
D|--------0--------0--------0--------0--------0----------0--------0----------0--------0--------|
A|-----------0--------3--------3--------3--------3-----------0--------3/5--------5--------5----|
E|--3-----------------------------------------------3------------------------------------------|


e|--------------------------------------------------------------|
B|--------------------------------------------------------------|
G|-----------------0--------0--------0--------0--------0--------|
D|--------------------0--------0--------0--------0--------0-----|
A|--5\3--3/5--5/7-----------------3--------3--------3--------3--|
E|-----------------------3--------------------------------------|


e|----------------------------------------------------|
B|----------------------------------------------------|
G|-------0--------0--------0--------0--------0--------|
D|----------0--------0--------0--------0--------0-----|
A|--3/7-----------------5--------5--------5--------5--|
E|-------------3--------------------------------------|


(2:23)                I'll never take this life for granted...
e|---------------------------------------------------------------------------------------------|
B|---------------------------------------------------------------------------------------------|
G|-----0--------0--------0--------0--------0----------0--------0----------0--------0--------0--|
D|--------0--------0--------0--------0--------0----------0--------0----------0--------0--------|
A|-----------0--------3--------3--------3--------3-----------0--------3/5--------5--------5----|
E|--3-----------------------------------------------3------------------------------------------|


e|--------------------------------------------------------------|
B|--------------------------------------------------------------|
G|-----------------0--------0--------0--------0--------0--------|
D|--------------------0--------0--------0--------0--------0-----|
A|--5\3--3/5--5/7-----------------3--------3--------3--------3--|
E|-----------------------3--------------------------------------|


e|----------------------------------------------------|
B|----------------------------------------------------|
G|-------0--------0--------0--------0--------0--------|
D|----------0--------0--------0--------0--------0-----|
A|--3/7-----------------5--------5--------5--------5--|
E|-------------3--------------------------------------|


One step at a time... (2:36)
    G      D      C      Cm
e|--x------x------x------x------|
B|--3------7------5------4------|
G|--0------0------0------0------|
D|--0------x------x------x------|
A|--2------5------3------3------|
E|--3---------------------------|


Cuz I know... (2:48)
    G      D    Cadd9  Cm(add9)
e|--3------x------x------x------|
B|--3------7------3------3------|
G|--0------0------0------0------|
D|--0------0------2------1------|
A|--2------5------3------3------|
E|--3---------------------------|


(3:01)                                                                                   (3:14)
    G    A  Cadd9  G    A    D    Em   G  Cadd9  Em   G    D  Cadd9  Cm(add9)  G
e|--x----x----x----x----x----x----x----x----x----x----x----x----x-------x------x-----------------|
B|--3----3----3----3----3----3----0----3----3----0----3----3----3-------3------0--0-----1--0-----|
G|--0----0----0----0----0----2----0----0----0----0----0----2----0-------0------0-----2--------0--|
D|--0----2----2----0----2----0----2----0----2----2----0----0----2-------1------0-----------------|
A|--2----0----3----2----0----0----2----2----3----2----2----0----3-------3------x-----------------|
E|--3--------------3--------------0----3---------0----3------------------------3-----------------|
Tap to rate this tab
# A B C D E F G H I J K L M N O P Q R S T U V W X Y Z