Song name
# A B C D E F G H I J K L M N O P Q R S T U V W X Y Z

Four Year Strong - Nineteen With Neck Tatz tab

Nineteen With Neck Tatz - Four Year Strong
Tuning: Whole step down from standard

Note: For the most part, I'm only worrying about which notes are being played, so notes
played more than once in a row might just be tabbed as being played once (mainly when
it's just one note for kind of a while). There's also not really any rhythm in this tab, 
but i tried to space things out when there was more space.

I watched this video for help when figuring this out, i'd recommend watching it if you
are having trouble: http://www.youtube.com/watch?v=02wZEMvR5_M

Enjoy!

    VERSE

d|------------------------------------------7-7-|
a|--------------------------------------9-7-7-7-|  Not sure about this part
f|--------------------------------------6-6-6-6-|   but it sounds okay
c|----------------------------------------------|
g|----------------------------------------------|
d|--0----------7-7-9----------------------------|

d|---------------------------------------------|
a|---------------------------------------------|
f|---------------------------------------------|
c|-------------------2-----------2-------------|
g|-----2-2-4---2-4-----4---2-------4-2---------|
d|--0------------------------4---------4~------|

d|------------------------------------------7-7-|
a|--------------------------------------9-7-7-7-|
f|--------------------------------------6-6-6-6-|
c|----------------------------------------------|
g|----------------------------------------------|
d|--0-----------7-7-9---------------------------|

d|---------------------------------------------|
a|---------------------------------------------|
f|---------------------------------------------|
c|---------------------------------------------|
g|---------------------------------------------|
d|--0-----------7-7-9----5-4-0--10^^12-0-------|

    CHORUS

d|---------------------------------------------|
a|---------------------------------------------|
f|-----4---------------------------------------|
c|-------6-4-------------4---------------------|       x2
g|-----------7---4-7-4-7---7-------------------|
d|-0-------------------------------------------|

d|---------------------------------------------|
a|---------------------------------------------|
f|---------------------------------------------|
c|---------------------------------------------|
g|---------------------------------------------|
d|--2-------0---9--7--5-4-0--------------------|

d|---------------------------------------------|
a|---------------------------------------------|
f|-----4---------------------------------------|
c|-------6-4-------------4---------------------|       x2
g|-----------7---4-7-4-7---7-------------------|
d|-0-------------------------------------------|

d|---------------------------------------------|
a|---------------------------------------------|
f|---------------------------------------------|
c|---------------------------------------------|
g|---------------------------------------------|
d|--2-------4---9--7---4-0---------------------|

    VERSE

d|---------------------------------------------|
a|---------------------------------------------|
f|---------------------------------------------|
c|---------------------------------------------|                x2
g|-------14-13-----13-12-----12-11-------------|
d|--0-0--------0-0-------0-0-------------------|

d|---------------------------------------------|
a|---------------------------------------------|
f|---------------------------------------------|
c|---------------------------------------------|
g|---------------------------------------------|
d|--9------4-9---7--5-4------------------------|

d|---------------------------------------------|
a|---------------------------------------------|
f|---------------------------------------------|
c|---------------------------------------------|
g|---------------------------------------------|
d|--4\--0-0--0-5\--0-0--0-7\--0-0--0-9---------|

d|---------------------------------------------|
a|---------------------------------------------|
f|---------------------------------------------|
c|---------------------------------------------|
g|---------------------------------------------|
d|--4-44444-5-55555-7-77777-9-99999-10^^12-----|

    CHORUS

d|---------------------------------------------|
a|---------------------------------------------|
f|-----4---------------------------------------|
c|-------6-4-------------4---------------------|       x2
g|-----------7---4-7-4-7---7-------------------|
d|-0-------------------------------------------|

d|---------------------------------------------|
a|---------------------------------------------|
f|---------------------------------------------|
c|---------------------------------------------|
g|---------------------------------------------|
d|--2-------0---9--7--5-0----------------------|

d|---------------------------------------------|
a|---------------------------------------------|
f|-----4---------------------------------------|
c|-------6-4-------------4---------------------|       x2
g|-----------7---4-7-4-7---7-------------------|
d|-0-------------------------------------------|

d|---------------------------------------------|
a|---------------------------------------------|
f|---------------------------------------------|
c|---------------------------------------------|
g|---------------------------------------------|
d|--2-------4---9--7---4-0---------------------|

d|---------------------------------------------|
a|---------------------------------------------|
f|---------------------------------------------|
c|---------------------------------------------|
g|---------------------------------------------|
d|--4\--x-x--x-5\--x-x--x-7\--x-x--x-9---------|

    BUILDUP

d|---------------------------------------------|
a|---------------------------------------------|
f|---------------------------------------------|                x2
c|---------------------------------------------|
g|---------------------------------------------|
d|--4-00004-5-55555-7-77777-9-99999------------|

d|---------------------------------------------|
a|---------------------------------------------|
f|---------------------------------------------|
c|---------------------------------------------|
g|---------------------------------------------|
d|--4-00004-5-55555-7-77777-9-99999---10^^12---|

    CHORUS

d|---------------------------------------------|
a|---------------------------------------------|
f|-----4---------------------------------------|
c|-------6-4-------------4---------------------|       x2
g|-----------7---4-7-4-7---7-------------------|
d|-0-------------------------------------------|

d|---------------------------------------------|
a|---------------------------------------------|
f|---------------------------------------------|
c|---------------------------------------------|
g|---------------------------------------------|
d|--2-------0---9--7--5-4-0--------------------|

d|---------------------------------------------|
a|---------------------------------------------|
f|-----4---------------------------------------|
c|-------6-4-------------4---------------------|       x2
g|-----------7---4-7-4-7---7-------------------|
d|-0-------------------------------------------|

d|---------------------------------------------|
a|---------------------------------------------|
f|---------------------------------------------|
c|---------------------------------------------|
g|---------------------------------------------|
d|--2-------4---9--7---4---    --0-------------|

    BREAKDOWN

d|---------------------------------------------|
a|---------------------------------------------|
f|---------------------------------------------|
c|---------------------------------------------|
g|---------------------------------------------|
d|--------0------------------------------------|                for like, ever

    WE BUILT THIS CITY ON HEART AND SOUL - BEATDOWN

d|------------------------------------------------------------|
a|---------------0------------------------------0-------------|
f|------------------------------------------------------------|
c|--------2-4-2-4--------2-4-2----------2-4-2-4---------------|
g|-----------------------------6-2~---------------------------|
d|--0----------------0---------------0---------------0-0--0-0-|


If you are watching the video I linked at the top, he plays this little thing right at 
the end

d|---------------------------------------------|
a|---------------------------------------------|
f|---------------------------------------------|
c|--2-4-2--------------------------------------|
g|--------2-6~---------------------------------|
d|---------------------------------------------|
Tap to rate this tab
# A B C D E F G H I J K L M N O P Q R S T U V W X Y Z