Song name
# A B C D E F G H I J K L M N O P Q R S T U V W X Y Z

Four Year Strong - Beatdown In The Key Of Happy tab

Four Year Strong - Beatdown in the key of happy                                    
Drop D Tuning
tabbed by: arizonagreentea
Have fun :)



guitar 1

                                                            
     S        S S S E  E  E  E  S S S S    E  E  S S S S E  E  E  E   
E||-------------------------------------|----------------------------|
B||-------------------------------------|----------------------------|
G||-------------------------------------|----------------------------|
D||-------------------------------------|----------------------------|
A||--0--------0-0-0-9--7-----5----------|-----5-------------5--4--5--|
D||--0--------0-0-0-------0-----0-0-0-0-|--4-----0-0-0-0-5-----------|


                     PH                                     
  S S S S E  E  E    Q     E     E  E  S S S S E  E  E  E   
------------------------------|----------------------------|
------------------------------|----------------------------|
------------------------------|----------------------------|
------------------------------|----------------------------|
--0-0-0-0-9--7-----<>5~-------|-----5-------------5--4--5--|
--0-0-0-0-------0----------0--|--4-----0-0-0-0-5-----------|


                     PH                                      
  S S S S E  E  E    Q     S S    E  E  S S S S E  E  E  E   
-------------------------------|----------------------------|
-------------------------------|----------------------------|
-------------------------------|----------------------------|
-------------------------------|----------------------------|
--0-0-0-0-9--7-----<>5~--------|-----5-------------5--4--5--|
--0-0-0-0-------0----------0-0-|--4-----0-0-0-0-5-----------|


                     PH                                     
  S S S S E  E  E    Q     E     E  E  S S S S E  E  E  E   
------------------------------|----------------------------|
------------------------------|----------------------------|
------------------------------|----------------------------|
------------------------------|----------------------------|
--0-0-0-0-9--7-----<>5~-------|-----5-------------5--------|
--0-0-0-0-------0----------0--|--4-----0-0-0-0-5-----------|


  S S S S Q    S S Q    S S    Q    S S S S E  E  E  E   
----------------------------|---------------------------|
----------------------------|---------------------------|
----------------------------|---------------------------|
----------------------------|---------------------------|
----------------------------|---------------------------|
--0-0-0-0-0----0-0-0----0-0-|--4----4-4-4-4-5--5--5--5--|


  S S S S Q    S S Q    S S    Q    S S S S E  E  E  E   
----------------------------|---------------------------|
----------------------------|---------------------------|
----------------------------|---------------------------|
----------------------------|---------------------------|
----------------------------|---------------------------|
--0-0-0-0-0----0-0-0----0-0-|--4----4-4-4-4-5--4--2--4--|


  S S S S Q    S S Q    S S    Q    S S S S E  E  E  E   
----------------------------|---------------------------|
----------------------------|---------------------------|
----------------------------|---------------------------|
----------------------------|---------------------------|
----------------------------|---------------------------|
--0-0-0-0-0----0-0-0----0-0-|--4----4-4-4-4-5--5--5--5--|


  S S S S Q    S S Q    S S    Q    S S S S E  E  E  E   
----------------------------|---------------------------|
----------------------------|---------------------------|
----------------------------|---------------------------|
----------------------------|---------------------------|
----------------------------|---------------------------|
--0-0-0-0-0----0-0-0----0-0-|--4----4-4-4-4-5--5--5--5--|


  E  E  E  E  E  E  E  E     E  E  E  E  E  E  E  E   
--------------------------|--------------------------|
--------------------------|--------------------------|
--------------------------|--------------------------|
--------7--5-----4--------|--------------2--4--2--4--|
--------------------------|--4--5--------------------|
--0--0--------0-----0--0--|--------0--0--------------|


  S S E  E  E  E  E  E  E     E  E  E  E  E  E  E  E   
---------------------------|--------------------------|
---------------------------|--------------------------|
---------------------------|--------------------------|
---------7--5-----4--------|--------------2--4--2--4--|
---------------------------|--4--5--------------------|
--0-0-0--------0-----0--0--|--------0--0--------------|


  E  E  E  E  E  E  E  E     E  E  E  E  E  E  E  E   
--------------------------|--------------------------|
--------------------------|--------------------------|
--------------------------|--------------------------|
--------7--5-----4--------|--------------2--4--2--4--|
--------------------------|--4--5--------------------|
--0--0--------0-----0--0--|--------0--0--------------|


  E  E  E  E  E  E  E  E     E  E  E  E  E  E  E  E     W                 
--------------------------|--------------------------|-------------------|
--------------------------|--------------------------|-------------------|
--------------------------|--------------------------|-------------------|
--------7--5-----4--------|--------------2--4--2--4--|--2----------------|
--------------------------|--4--5--------------------|-------------------|
--0--0--------0-----0--0--|--------0--0--------------|-------------------|


                      PM PM PM PM PM PM PM PM    PM PM PM PM PM PM PM PM  
  W                   E  E  E  E  E  E  E  E     E  E  E  E  E  E  E  E   
-------------------|--------------------------|--------------------------|
-------------------|--------------------------|--------------------------|
-------------------|--7--7--6--6--------6--6--|--7--7--6--6--------6--6--|
--L----------------|--------------7--7--------|--------------7--7--------|
-------------------|--------------------------|--------------------------|
-------------------|--------------------------|--------------------------|


  PM PM PM PM PM PM PM PM    PM PM PM PM              
  E  E  E  E  E  E  E  E     E  E  E  E  E  E  E  E   
--------------------------|--------------------------|
--------------------------|--------------5--7--5-----|
--7--7--6--6--------6--6--|--7--7--6--6--------------|
--------------7--7--------|--------------------------|
--------------------------|--------------------------|
--------------------------|--------------------------|


  PM PM PM PM PM PM PM PM    PM PM PM PM PM PM PM PM  
  E  E  E  E  E  E  E  E     E  E  E  E  E  E  E  E   
--------------------------|--------------------------|
--------------------------|--------------------------|
--7--7--6--6--------6--6--|--7--7--6--6--------6--6--|
--------------7--7--------|--------------7--7--------|
--------------------------|--------------------------|
--------------------------|--------------------------|


  PM PM PM PM PM PM PM PM    PM PM PM PM              
  E  E  E  E  E  E  E  E     E  E  E  E  E  E  E  E   
--------------------------|--------------------------|
--------------------------|--------------5--7--5-----|
--7--7--6--6--------6--6--|--7--7--6--6--------------|
--------------7--7--------|--------------------------|
--------------------------|--------------------------|
--------------------------|--------------------------|


  E  E  E  E  E  E  E  E     E  E  E  E  E  E  E  E   
--------------------------|--------------------------|
--------------------------|--------------------------|
--7-----7-----7-----7-----|--6-----6-----6--6--6--6--|
--7-----7-----7-----7-----|--7-----7-----7--7--7--7--|
--------------------------|--------------------------|
--------------------------|--------------------------|


  E  E  E  E  E  E  E  E     E  E  E  E  E  E  E  E   
--------------------------|--------------------------|
--------------------------|--------------------------|
--7-----7-----7-----7-----|--6-----6-----6--6--6--6--|
--7-----7-----7-----7-----|--7-----7-----7--7--7--7--|
--------------------------|--------------------------|
--------------------------|--------------------------|


  E  E  E  E  E  E  E  E     E  E  E  E  E  E  E  E   
--------------------------|--------------------------|
--------------------------|--------------------------|
--7-----7-----7-----7-----|--6-----6-----6--6--6--6--|
--7-----7-----7-----7-----|--7-----7-----7--7--7--7--|
--------------------------|--------------------------|
--------------------------|--------------------------|


  E  E  E  E  E  E  E  E     E  E  E  E  E  E  E  E   
--------------------------|--------------------------|
--------------------------|--------------------------|
--7-----7-----7-----7-----|--6-----6-----6--6--6--6--|
--7-----7-----7-----7-----|--7-----7-----7--7--7--7--|
--------------------------|--------------------------|
--------------------------|--------------------------|


  E  E  E  E  E  E  E  E      E  E   E  E   E  E  E  E   
--------------------------|-----------------------------|
--------------------------|-----------------------------|
--9-----9-----9-----9-----|--11-----11-----11-----------|
--9-----9-----9-----9-----|--11-----11-----11--x--x--x--|
--------------------------|--------------------x--x--x--|
--------------------------|--------------------x--x--x--|


  E  E  E  E  E  E  E  E     E  E  E  E  E  E  E  E   
--------------------------|--------------------------|
--------------------------|--------------------------|
--7--7--7--7--7--7--7--7--|--7--7--7--7--6--6--6--6--|
--7--7--7--7--7--7--7--7--|--7--7--7--7--7--7--7--7--|
--------------------------|--------------------------|
--------------------------|--------------------------|


  E  E  E  E  E  E  E  E     E  E  E  E  E  E  E  E   
--------------------------|--------------------------|
--------------------------|--------------------------|
--7--7--7--7--7--7--7--7--|--7--7--7--7--6--6--6--6--|
--7--7--7--7--7--7--7--7--|--7--7--7--7--7--7--7--7--|
--------------------------|--------------------------|
--------------------------|--------------------------|


  E  E  E  E  E  E  E  E     E  E  E  E  E  E  E  E   
--------------------------|--------------------------|
--------------------------|--------------------------|
--7--7--7--7--7--7--7--7--|--7--7--7--7--6--6--6--6--|
--7--7--7--7--7--7--7--7--|--7--7--7--7--7--7--7--7--|
--------------------------|--------------------------|
--------------------------|--------------------------|


  E  E  E  E  E  E  E  E      E   E   E   E   E   E   E   E   
--------------------------|----------------------------------|
--------------------------|----------------------------------|
--9--9--9--9--9--9--9--9--|--11--11--11--11--11--11--11--11--|
--9--9--9--9--9--9--9--9--|--11--11--11--11--11--11--11--11--|
--------------------------|----------------------------------|
--------------------------|----------------------------------|


  E  E  E  E   E   E   E   E     E  E  E  E   E   E   E   E   
------------------------------|------------------------------|
------------------------------|------------------------------|
--7--7--7--7--14--14--11--11--|--9--9--9--9--11--11--11--11--|
------------------------------|------------------------------|
--5--5--5--5--12--12---9---9--|--7--7--7--7---9---9---9---9--|
------------------------------|------------------------------|


  E  E  E  E   E   E   E   E     E  E  E  E  E  E  E  E   
------------------------------|--------------------------|
------------------------------|--------------------------|
--7--7--7--7--14--14--11--11--|--9--9--9--9--7--7--7--6--|
------------------------------|--------------------------|
--5--5--5--5--12--12---9---9--|--7--7--7--7--5--5--5--4--|
------------------------------|--------------------------|


  E  E  E  E   E   E   E   E     E  E  E  E   E   E   E   E   
------------------------------|------------------------------|
------------------------------|------------------------------|
--7--7--7--7--14--14--11--11--|--9--9--9--9--11--11--11--11--|
------------------------------|------------------------------|
--5--5--5--5--12--12---9---9--|--7--7--7--7---9---9---9---9--|
------------------------------|------------------------------|


   E   E   E   E  E   E  E  E     E  E  E  E   E  E  E  E   
-------------------------------|---------------------------|
-------------------------------|---------------------------|
--12--12--12--12--x--11--x--9--|--L--9--9--9--11--9--7--9--|
------------------x------x-----|---------------------------|
--10--10--10--10--x---9--x--7--|--L--7--7--7---9--7--5--7--|
-------------------------------|---------------------------|


                                                          NH    
  H.            Q                        Q    Q    Q      Q     
----------------------|-------|-------|------------------------|
----------------------|-------|-------|------------------------|
----------------------|-------|-------|-----------------<>5----|
----------------------|-------|-------|-----------------<>5----|
--5~------------L\----|-------|-------|------------------------|
----------------------|-------|-------|------------------------|


  PM PM PM PM PM PM PM PM    PM PM PM PM PM PM PM PM  
  E  E  E  E  E  E  E  E     E  E  E  E  E  E  E  E   
--------------------------|--------------------------|
--------------------------|--------------------------|
--7--7--6--6--------6--6--|--7--7--6--6--------6--6--|
--------------7--7--------|--------------7--7--------|
--------------------------|--------------------------|
--------------------------|--------------------------|


  PM PM PM PM PM PM PM PM    PM PM PM PM              
  E  E  E  E  E  E  E  E     E  E  E  E  E  E  E  E   
--------------------------|--------------------------|
--------------------------|--------------5--7--5-----|
--7--7--6--6--------6--6--|--7--7--6--6--------------|
--------------7--7--------|--------------------------|
--------------------------|--------------------------|
--------------------------|--------------------------|


  PM PM PM PM PM PM PM PM    PM PM PM PM PM PM PM PM  
  E  E  E  E  E  E  E  E     E  E  E  E  E  E  E  E   
--------------------------|--------------------------|
--------------------------|--------------------------|
--7--7--6--6--------6--6--|--7--7--6--6--------6--6--|
--------------7--7--------|--------------7--7--------|
--------------------------|--------------------------|
--------------------------|--------------------------|


  PM PM PM PM PM PM PM PM    PM PM PM PM              
  E  E  E  E  E  E  E  E     E  E  E  E  E  E  E  E   
--------------------------|--------------------------|
--------------------------|--------------5--7--5-----|
--7--7--6--6--------6--6--|--7--7--6--6--------------|
--------------7--7--------|--------------------------|
--------------------------|--------------------------|
--------------------------|--------------------------|


  E  E  E  E  E  E  E  E     E  E  E  E  E  E  E  E   
--------------------------|--------------------------|
--------------------------|--------------------------|
--7-----7-----7-----7-----|--6-----6-----6--6--6--6--|
--7-----7-----7-----7-----|--7-----7-----7--7--7--7--|
--------------------------|--------------------------|
--------------------------|--------------------------|


  E  E  E  E  E  E  E  E     E  E  E  E  E  E  E  E   
--------------------------|--------------------------|
--------------------------|--------------------------|
--7-----7-----7-----7-----|--6-----6-----6--6--6--6--|
--7-----7-----7-----7-----|--7-----7-----7--7--7--7--|
--------------------------|--------------------------|
--------------------------|--------------------------|


  E  E  E  E  E  E  E  E     E  E  E  E  E  E  E  E   
--------------------------|--------------------------|
--------------------------|--------------------------|
--7-----7-----7-----7-----|--6-----6-----6--6--6--6--|
--7-----7-----7-----7-----|--7-----7-----7--7--7--7--|
--------------------------|--------------------------|
--------------------------|--------------------------|


  E  E  E  E  E  E  E  E     E  E  E  E  E  E  E  E   
--------------------------|--------------------------|
--------------------------|--------------------------|
--7-----7-----7-----7-----|--6-----6-----6--6--6--6--|
--7-----7-----7-----7-----|--7-----7-----7--7--7--7--|
--------------------------|--------------------------|
--------------------------|--------------------------|


  E  E  E  E  E  E  E  E      E  E   E  E  S S S S S S S S  
--------------------------|--------------------------------|
--------------------------|--------------------------------|
--9--9-----9--9-----9-----|--11-----11---------------------|
--9--9-----9--9-----9-----|--11-----11-----x-x-x-x-x-x-x-x-|
--------------------------|----------------x-x-x-x-x-x-x-x-|
--------------------------|----------------x-x-x-x-x-x-x-x-|


  E  E  E  E  E  E  E  E     E  E  E  E  E  E  E  E   
--------------------------|--------------------------|
--------------------------|--------------------------|
--7--7--7--7--7--7--7--7--|--7--7--7--7--6--6--6--6--|
--7--7--7--7--7--7--7--7--|--7--7--7--7--7--7--7--7--|
--------------------------|--------------------------|
--------------------------|--------------------------|


  E  E  E  E  E  E  E  E     E  E  E  E  E  E  E  E   
--------------------------|--------------------------|
--------------------------|--------------------------|
--7--7--7--7--7--7--7--7--|--7--7--7--7--6--6--6--6--|
--7--7--7--7--7--7--7--7--|--7--7--7--7--7--7--7--7--|
--------------------------|--------------------------|
--------------------------|--------------------------|


  E  E  E  E  E  E  E  E     E  E  E  E  E  E  E  E   
--------------------------|--------------------------|
--------------------------|--------------------------|
--7--7--7--7--7--7--7--7--|--7--7--7--7--6--6--6--6--|
--7--7--7--7--7--7--7--7--|--7--7--7--7--7--7--7--7--|
--------------------------|--------------------------|
--------------------------|--------------------------|


  E  E  E  E  E  E  E  E      E   E   E   E   E   E   E   E   
--------------------------|----------------------------------|
--------------------------|----------------------------------|
--9--9--9--9--9--9--9--9--|--11--11--11--11--11--11--11--11--|
--9--9--9--9--9--9--9--9--|--11--11--11--11--11--11--11--11--|
--------------------------|----------------------------------|
--------------------------|----------------------------------|


  E  E  E  E   E   E   E   E     E  E  E  E   E   E   E   E   
------------------------------|------------------------------|
------------------------------|------------------------------|
--7--7--7--7--14--14--11--11--|--9--9--9--9--11--11--11--11--|
------------------------------|------------------------------|
--5--5--5--5--12--12---9---9--|--7--7--7--7---9---9---9---9--|
------------------------------|------------------------------|


  E  E  E  E   E   E   E   E     E  E  E  E  E  E  E  E   
------------------------------|--------------------------|
------------------------------|--------------------------|
--7--7--7--7--14--14--11--11--|--9--9--9--9--7--7--7--6--|
------------------------------|--------------------------|
--5--5--5--5--12--12---9---9--|--7--7--7--7--5--5--5--4--|
------------------------------|--------------------------|


  E  E  E  E   E   E   E   E     E  E  E  E   E   E   E   E   
------------------------------|------------------------------|
------------------------------|------------------------------|
--7--7--7--7--14--14--11--11--|--9--9--9--9--11--11--11--11--|
------------------------------|------------------------------|
--5--5--5--5--12--12---9---9--|--7--7--7--7---9---9---9---9--|
------------------------------|------------------------------|


   E   E   E   E  E   E  E  E     E  E  E  E   E  E  E  E   
-------------------------------|---------------------------|
-------------------------------|---------------------------|
--12--12--12--12--x--11--x--9--|--L--9--9--9--11--9--7--9--|
------------------x------x-----|---------------------------|
--10--10--10--10--x---9--x--7--|--L--7--7--7---9--7--5--7--|
-------------------------------|---------------------------|


  H.            Q                E  E  E  Q    E  E  E   
----------------------|-------|-------------------------|
----------------------|-------|-------------------------|
----------------------|-------|-------------------------|
----------------------|-------|-------------------------|
--5~------------L\----|-------|--0--0--0-------0--0-----|
----------------------|-------|--0--0--0-------0--0-----|


  H        S S S S E  E     E  E  E  Q    E  E  E     H        S S S S E  E   
-------------------------|-------------------------|-------------------------|
-------------------------|-------------------------|-------------------------|
-------------------------|-------------------------|-------------------------|
-------------------------|-------------------------|-------------------------|
-----------0-0-0-0-0-----|--0--0--0-------0--0-----|-----------0-0-0-0-0-----|
-----------0-0-0-0-0-----|--0--0--0-------0--0-----|-----------0-0-0-0-0-----|


  E  E  E  Q    E  E  E     H        S S S S S S S S    E  E  E  Q    E  E  E   
-------------------------|---------------------------|-------------------------|
-------------------------|---------------------------|-------------------------|
-------------------------|---------------------------|-------------------------|
-------------------------|---------------------------|-------------------------|
--0--0--0-------0--0-----|-----------0-0-0-0-0-0-0-0-|--0--0--0-------0--0-----|
--0--0--0-------0--0-----|-----------0-0-0-0-0-0-0-0-|--0--0--0-------0--0-----|


  H        S S S S E  E     E  E  E  E   E   E   E   E   
-------------------------|------------------------------|
-------------------------|------------------------------|
-------------------------|--7--7--7--7--14--14--11--11--|
-------------------------|------------------------------|
-----------0-0-0-0-0-----|--5--5--5--5--12--12---9---9--|
-----------0-0-0-0-0-----|------------------------------|


  E  E  E  E   E   E   E   E     E  E  E  E   E   E   E   E   
------------------------------|------------------------------|
------------------------------|------------------------------|
--9--9--9--9--11--11--11--11--|--7--7--7--7--14--14--11--11--|
------------------------------|------------------------------|
--7--7--7--7---9---9---9---9--|--5--5--5--5--12--12---9---9--|
------------------------------|------------------------------|


  E  E  E  E  E  E  E  E     E  E  E  E   E   E   E   E   
--------------------------|------------------------------|
--------------------------|------------------------------|
--9--9--9--9--7--7--7--6--|--7--7--7--7--14--14--11--11--|
--------------------------|------------------------------|
--7--7--7--7--5--5--5--4--|--5--5--5--5--12--12---9---9--|
--------------------------|------------------------------|


  E  E  E  E   E   E   E   E      E  S S S S  E  S S S S E  S S  
------------------------------|---------------------------------|
------------------------------|---------------------------------|
--9--9--9--9--11--11--11--11--|--12--x-x-x-x-11--x-x-x-x-9--x-x-|
------------------------------|------x-x-x-x-----x-x-x-x----x-x-|
--7--7--7--7---9---9---9---9--|--10--x-x-x-x--9--x-x-x-x-7--x-x-|
------------------------------|---------------------------------|


  S S E  E  E  E    E  Q       E  E  E  E  E  E  E  E   
----------------------------|--------------------------|
----------------------------|--------------------------|
--x-x-9--9--9--9s--11-------|--7--7--7--7--7--7--7--7--|
--x-x-----------------------|--7--7--7--7--7--7--7--7--|
--x-x-7--7--7--7s---9-------|--------------------------|
----------------------------|--------------------------|


  E  E  E  E  E  E  E  E     E  E  E  E  E  E  E  E   
--------------------------|--------------------------|
--------------------------|--------------------------|
--7--7--7--7--6--6--6--6--|--7--7--7--7--7--7--7--7--|
--7--7--7--7--7--7--7--7--|--7--7--7--7--7--7--7--7--|
--------------------------|--------------------------|
--------------------------|--------------------------|


  E  E  E  E  E  E  E  E     E  E  E  E  E  E  E  E   
--------------------------|--------------------------|
--------------------------|--------------------------|
--7--7--7--7--6--6--6--6--|--7--7--7--7--7--7--7--7--|
--7--7--7--7--7--7--7--7--|--7--7--7--7--7--7--7--7--|
--------------------------|--------------------------|
--------------------------|--------------------------|


  E  E  E  E  E  E  E  E     E  E  E  E  E  E  E  E   
--------------------------|--------------------------|
--------------------------|--------------------------|
--7--7--7--7--6--6--6--6--|--9--9--9--9--9--9--9--9--|
--7--7--7--7--7--7--7--7--|--9--9--9--9--9--9--9--9--|
--------------------------|--------------------------|
--------------------------|--------------------------|


   E   E   E   E   E   E   E   E     E  E  E  E   E   E   E   E   
----------------------------------|------------------------------|
----------------------------------|------------------------------|
--11--11--11--11--11--11--11--11--|--7--7--7--7--14--14--11--11--|
--11--11--11--11--11--11--11--11--|------------------------------|
----------------------------------|--5--5--5--5--12--12---9---9--|
----------------------------------|------------------------------|


  E  E  E  E   E   E   E   E     E  E  E  E   E   E   E   E   
------------------------------|------------------------------|
------------------------------|------------------------------|
--9--9--9--9--11--11--11--11--|--7--7--7--7--14--14--11--11--|
------------------------------|------------------------------|
--7--7--7--7---9---9---9---9--|--5--5--5--5--12--12---9---9--|
------------------------------|------------------------------|


  E  E  E  E  E  E  E  E     E  E  E  E   E   E   E   E   
--------------------------|------------------------------|
--------------------------|------------------------------|
--9--9--9--9--7--7--7--6--|--7--7--7--7--14--14--11--11--|
--------------------------|------------------------------|
--7--7--7--7--5--5--5--4--|--5--5--5--5--12--12---9---9--|
--------------------------|------------------------------|


  E  E  E  E   E   E   E   E      E   E   E   E  E   E  E  E   
------------------------------|-------------------------------|
------------------------------|-------------------------------|
--9--9--9--9--11--11--11--11--|--12--12--12--12--x--11--x--9--|
------------------------------|------------------x------x-----|
--7--7--7--7---9---9---9---9--|--10--10--10--10--x---9--x--7--|
------------------------------|-------------------------------|


  E  E  E  E   E  E  E  E     S S S S E  E  E  E  S S S S  
---------------------------|------------------------------|
---------------------------|------------------------------|
--L--9--9--9--11--9--7--9--|------------------------------|
---------------------------|------------------------------|
--L--7--7--7---9--7--5--7--|--0-0-0-0-9--7-----5----------|
---------------------------|--0-0-0-0-------0-----0-0-0-0-|


  E  E  S S S S E  E  E  E     S S S S E  E  E  E  S S S S  
----------------------------|------------------------------|
----------------------------|------------------------------|
----------------------------|------------------------------|
----------------------------|------------------------------|
-----5-------------5--4--5--|--0-0-0-0-9--7-----5----------|
--4-----0-0-0-0-5-----------|--0-0-0-0-------0-----0-0-0-0-|


                                                  PH        
  E  E  S S S S E  E  E  E     S S S S E  E  E    Q    S S  
----------------------------|------------------------------|
----------------------------|------------------------------|
----------------------------|------------------------------|
----------------------------|------------------------------|
-----5-------------5--4--5--|--0-0-0-0-9--7-----<>5--------|
--4-----0-0-0-0-5-----------|--0-0-0-0-------0---------0-0-|


  E  E  S S S S E  E  E  E     S S S S E  E  E  E  S S S S  
----------------------------|------------------------------|
----------------------------|------------------------------|
----------------------------|------------------------------|
----------------------------|------------------------------|
-----5-------------5--4--5--|--0-0-0-0-9--7-----5----------|
--4-----0-0-0-0-5-----------|--0-0-0-0-------0-----0-0-0-0-|


                               PM PM   
  E  E  S S S S E  E  E  E     E  E    
----------------------------|--------||
----------------------------|--------||
----------------------------|--------||
----------------------------|--------||
-----5-------------5--4--5--|--0--0--||
--4-----0-0-0-0-5-----------|--0--0--||


  Guitar 2     
 
                                                           
     Q        Q    Q    Q       Q    Q    Q    E   E     S E.  H.            
E||--------------------------|------------------------|---------------------|
B||--------------------------|------------------------|---------------------|
G||--------------------------|------------------------|---------------------|
D||--------------------------|------------------------|---------------------|
A||--------------------------|-----------------4h--5--|--0------------------|
D||--------------------------|------------------------|--0------------------|


                                                    PH        
  Q    Q    Q    E  E     S S S S S S S S S S S S   S  S S S  
-----------------------|-------------------------------------|
-----------------------|-------------------------------------|
-----------------------|-------------------------------------|
-----------------------|-------------------------------------|
-----------------4--5--|--4-----------7-----------<>5~-L-----|
-----------------------|-------------------------------------|


  Q    Q    Q    E  E     S E.  H.                            
-----------------------|---------------------|---------------|
-----------------------|---------------------|---------------|
-----------------------|---------------------|---------------|
-----------------------|---------------------|---------------|
-----------------4--5--|--0------------------|---------------|
-----------------------|--0------------------|---------------|


                     PH                                     
  S S S S E  E  E    Q     E     E  E  S S S S E  E  E  E   
------------------------------|----------------------------|
------------------------------|----------------------------|
------------------------------|----------------------------|
------------------------------|----------------------------|
--0-0-0-0-9--7-----<>5~-------|-----5-------------5--4--5--|
--0-0-0-0-------0----------0--|--4-----0-0-0-0-5-----------|


                     PH                                PH     
  S S S S E  E  E    Q     E     E  E  S S S S E  E    Q      
------------------------------|------------------------------|
------------------------------|------------------------------|
------------------------------|------------------------------|
------------------------------|------------------------------|
--0-0-0-0-9--7-----<>5~-------|-----5-------------5--<>5~----|
--0-0-0-0-------0----------0--|--4-----0-0-0-0-4-------------|


                     PH                                     
  S S S S E  E  E    Q     E     E  E  S S S S E  E  E  E   
------------------------------|----------------------------|
------------------------------|----------------------------|
------------------------------|----------------------------|
------------------------------|----------------------------|
--0-0-0-0-9--7-----<>5~-------|-----5-------------5--4--5--|
--0-0-0-0-------0----------0--|--4-----0-0-0-0-5-----------|


                     PH                                PH     
  S S S S E  E  E    Q     E     E  E  S S S S E  E    Q      
------------------------------|------------------------------|
------------------------------|------------------------------|
------------------------------|------------------------------|
------------------------------|------------------------------|
--0-0-0-0-9--7-----<>5~-------|-----5-------------5--<>5~----|
--0-0-0-0-------0----------0--|--4-----0-0-0-0-4-------------|


  E  E  E  E  E  E  E  E     E  E  E  E  E  E  E  E   
--------------------------|--------------------------|
--------------------------|--------------------------|
--------------------------|--------------------------|
--------------------------|--------------------------|
--------9--7-----5--------|-----5-----------5--4--5--|
--0--0--------0-----0--0--|--4-----0--0--5-----------|


  S S E  E  E  E  E  E  E     E  E  E  E  E  E  E  E   
---------------------------|--------------------------|
---------------------------|--------------------------|
---------------------------|--------------------------|
---------------------------|--------------------------|
---------9--7-----5--------|-----5-----------5--4--5--|
--0-0-0--------0-----0--0--|--4-----0--0--5-----------|


  E  E  E  E  E  E  E  E     E  E  E  E  E  E  E  E   
--------------------------|--------------------------|
--------------------------|--------------------------|
--------------------------|--------------------------|
--------------------------|--------------------------|
--------9--7-----5--------|-----5-----------5--4--5--|
--0--0--------0-----0--0--|--4-----0--0--5-----------|


  E  E  E  E  E  E  E  E     E  E  E  E  E  E  E  E     W                 
--------------------------|--------------------------|-------------------|
--------------------------|--------------------------|-------------------|
--------------------------|--------------------------|-------------------|
--------------------------|--------------------2--4--|-------------------|
--------9--7-----5--------|-----5-----------5--------|--2----------------|
--0--0--------0-----0--0--|--4-----0--0--5-----------|--2----------------|


                       PM PM PM      PM PM       PM PM PM    PM PM        
  H.           Q       E  E  E  Q    E  E  E     E  E  E  E  E  E  Q      
---------------0----|-------------------------|--------------------------|
---------------0----|-------------------------|--------------------------|
---------------0----|-------------------------|--------------------------|
--------------------|-------------------------|--------------------------|
--L-----------------|-------------------------|--------------------------|
--L-----------------|--5--5--5-------5--5-----|--7--7--7-----9--9--9\----|


  PM PM PM      PM PM       PM PM PM    PM PM          PM PM PM      PM PM     
  E  E  E  Q    E  E  E     E  E  E  E  E  E  Q        E  E  E  Q    E  E  E   
-------------------------|--------------------------|-------------------------|
-------------------------|--------------------------|-------------------------|
-------------------------|--------------------------|-------------------------|
-------------------------|--------------------------|-------------------------|
-------------------------|--------------------------|-------------------------|
--5--5--5-------5--5-----|--7--7--7-----9--9--9\----|--5--5--5-------5--5-----|


  PM PM PM    PM PM          PM PM PM      PM PM       PM PM PM    PM PM        
  E  E  E  E  E  E  Q        E  E  E  Q    E  E  E     E  E  E  E  E  E  Q      
--------------------------|-------------------------|--------------------------|
--------------------------|-------------------------|--------------------------|
--------------------------|-------------------------|--------------------------|
--------------------------|-------------------------|--------------------------|
--------------------------|-------------------------|--------------------------|
--7--7--7-----9--9--9\----|--5--5--5-------5--5-----|--7--7--7-----9--9--9\----|


  PM PM PM PM PM PM PM PM PM PM PM    PM PM PM PM PM PM PM PM  
  E  S  S  E  E  S  S  E  S  S  E     E  E  E  E  E  E  E  E   
-----------------------------------|--------------------------|
-----------------------------------|--------------------------|
-----------------------------------|--------------------------|
-----------------------------------|--------------------------|
-----------------------------------|--------------------------|
--5--5--5--5--5--5--5--5--5--5--5--|--7--7--7--7--9--9--9--9--|


  PM PM PM PM PM PM PM PM PM PM PM    PM PM PM PM PM PM PM PM  
  E  S  S  E  E  S  S  E  S  S  E     E  E  E  E  E  E  E  E   
-----------------------------------|--------------------------|
-----------------------------------|--------------------------|
-----------------------------------|--------------------------|
-----------------------------------|--------------------------|
-----------------------------------|--------------------------|
--5--5--5--5--5--5--5--5--5--5--5--|--7--7--7--7--9--9--9--9--|


  PM PM PM PM PM PM PM PM PM PM PM    PM PM PM PM PM PM PM PM  
  E  S  S  E  E  S  S  E  S  S  E     E  E  E  E  E  E  E  E   
-----------------------------------|--------------------------|
-----------------------------------|--------------------------|
-----------------------------------|--------------------------|
-----------------------------------|--------------------------|
-----------------------------------|--------------------------|
--5--5--5--5--5--5--5--5--5--5--5--|--7--7--7--7--9--9--9--9--|


  PM PM PM PM PM PM PM PM PM PM PM    PM PM PM PM PM PM PM PM  
  E  S  S  E  E  S  S  E  S  S  E     E  E  E  E  E  E  E  E   
-----------------------------------|--------------------------|
-----------------------------------|--------------------------|
-----------------------------------|--------------------------|
-----------------------------------|--------------------------|
-----------------------------------|--------------------------|
--5--5--5--5--5--5--5--5--5--5--5--|--7--7--7--7--9--9--9--9--|


  W                   H        E  E  E  E     Q    Q    Q    Q     
-------------------|-----------------------|----------------------|
-------------------|-----------------------|----------------------|
-------------------|-----------------------|----------------------|
-------------------|-----------------------|--0----0----0----0----|
--2----------------|--L--------L-----------|--0----0----0----0----|
--2----------------|--L--------L-----------|--0----0----0----0----|


  Q    Q    Q    Q       Q    Q    Q    Q       Q    Q    Q    E  E   
----------------------|----------------------|-----------------------|
----------------------|----------------------|-----------------------|
----------------------|----------------------|-----------------------|
--0----0----0----0----|--5----5----5----5----|--5----5----5----5--5--|
--0----0----0----0----|--5----5----5----5----|--5----5----5----5--5--|
--0----0----0----0----|--5----5----5----5----|--5----5----5----5--5--|


  Q    Q    Q    Q       Q    Q    Q    Q       Q    Q    Q    Q     
----------------------|----------------------|----------------------|
----------------------|----------------------|----------------------|
----------------------|----------------------|----------------------|
--0----0----0----0----|--0----0----0----0----|--7----7----7----7----|
--0----0----0----0----|--0----0----0----0----|--7----7----7----7----|
--0----0----0----0----|--0----0----0----0----|--7----7----7----7----|


  Q    Q    Q    Q       Q    Q    Q    Q       Q    Q    Q    Q     
----------------------|----------------------|----------------------|
----------------------|----------------------|----------------------|
----------------------|----------------------|----------------------|
--7----7----7----7----|--0----0----0----0----|--0----0----0----0----|
--7----7----7----7----|--0----0----0----0----|--0----0----0----0----|
--7----7----7----7----|--0----0----0----0----|--0----0----0----0----|


  Q    Q    Q    Q       Q    Q    Q    E  E     Q    Q    Q    Q     
----------------------|-----------------------|----------------------|
----------------------|-----------------------|----------------------|
----------------------|-----------------------|----------------------|
--5----5----5----5----|--5----5----5----5--5--|--0----0----0----0----|
--5----5----5----5----|--5----5----5----5--5--|--0----0----0----0----|
--5----5----5----5----|--5----5----5----5--5--|--0----0----0----0----|


  Q    Q    Q    Q       E  E  E  E  E  E  E  E     E  E  E  E  E  E  E  E   
----------------------|--------------------------|--------------------------|
----------------------|--------------------------|--------------------------|
----------------------|--------------------------|--------------------------|
--0----0----0----0----|--7--7--7--7--x--9--x--5--|--L--5--5--5--------------|
--0----0----0----0----|--7--7--7--7--x--9--x--5--|--L--5--5--5--------------|
--0----0----0----0----|--7--7--7--7--x--9--x--5--|--L--5--5--5--5--4--2--4--|


  E  E  E  Q    E  E  E     H        S S S S E  E     E  E  E  Q    E  E  E   
-------------------------|-------------------------|-------------------------|
-------------------------|-------------------------|-------------------------|
-------------------------|-------------------------|-------------------------|
-------------------------|-------------------------|-------------------------|
-------------------------|-------------------------|-------------------------|
--0--0--0-------0--0-----|-----------0-0-0-0-0-----|--0--0--0-------0--0-----|


                            PM PM PM      PM PM       PM PM PM    PM PM        
  H        S S S S E  E     E  E  E  Q    E  E  E     E  E  E  E  E  E  Q      
-------------------------|-------------------------|--------------------------|
-------------------------|-------------------------|--------------------------|
-------------------------|-------------------------|--------------------------|
-------------------------|-------------------------|--------------------------|
-------------------------|-------------------------|--------------------------|
-----------0-0-0-0-0-----|--5--5--5-------5--5-----|--7--7--7-----9--9--9\----|


  PM PM PM      PM PM       PM PM PM    PM PM          PM PM PM      PM PM     
  E  E  E  Q    E  E  E     E  E  E  E  E  E  Q        E  E  E  Q    E  E  E   
-------------------------|--------------------------|-------------------------|
-------------------------|--------------------------|-------------------------|
-------------------------|--------------------------|-------------------------|
-------------------------|--------------------------|-------------------------|
-------------------------|--------------------------|-------------------------|
--5--5--5-------5--5-----|--7--7--7-----9--9--9\----|--5--5--5-------5--5-----|


  PM PM PM    PM PM          PM PM PM      PM PM       PM PM PM    PM PM        
  E  E  E  E  E  E  Q        E  E  E  Q    E  E  E     E  E  E  E  E  E  Q      
--------------------------|-------------------------|--------------------------|
--------------------------|-------------------------|--------------------------|
--------------------------|-------------------------|--------------------------|
--------------------------|-------------------------|--------------------------|
--------------------------|-------------------------|--------------------------|
--7--7--7-----9--9--9\----|--5--5--5-------5--5-----|--7--7--7-----9--9--9\----|


  PM PM PM PM PM PM PM PM PM PM PM    PM PM PM PM PM PM PM PM  
  E  S  S  E  E  S  S  E  S  S  E     E  E  E  E  E  E  E  E   
-----------------------------------|--------------------------|
-----------------------------------|--------------------------|
-----------------------------------|--------------------------|
-----------------------------------|--------------------------|
-----------------------------------|--------------------------|
--5--5--5--5--5--5--5--5--5--5--5--|--7--7--7--7--9--9--9--9--|


  PM PM PM PM PM PM PM PM PM PM PM    PM PM PM PM PM PM PM PM  
  E  S  S  E  E  S  S  E  S  S  E     E  E  E  E  E  E  E  E   
-----------------------------------|--------------------------|
-----------------------------------|--------------------------|
-----------------------------------|--------------------------|
-----------------------------------|--------------------------|
-----------------------------------|--------------------------|
--5--5--5--5--5--5--5--5--5--5--5--|--7--7--7--7--9--9--9--9--|


  PM PM PM PM PM PM PM PM PM PM PM    PM PM PM PM PM PM PM PM  
  E  S  S  E  E  S  S  E  S  S  E     E  E  E  E  E  E  E  E   
-----------------------------------|--------------------------|
-----------------------------------|--------------------------|
-----------------------------------|--------------------------|
-----------------------------------|--------------------------|
-----------------------------------|--------------------------|
--5--5--5--5--5--5--5--5--5--5--5--|--7--7--7--7--9--9--9--9--|


  PM PM PM PM PM PM PM PM PM PM PM    PM PM PM PM PM PM PM PM  
  E  S  S  E  E  S  S  E  S  S  E     E  E  E  E  E  E  E  E   
-----------------------------------|--------------------------|
-----------------------------------|--------------------------|
-----------------------------------|--------------------------|
-----------------------------------|--------------------------|
-----------------------------------|--------------------------|
--5--5--5--5--5--5--5--5--5--5--5--|--7--7--7--7--9--9--9--9--|


  W                   H        S S S S S S S S    Q    Q    Q    Q     
-------------------|---------------------------|----------------------|
-------------------|---------------------------|----------------------|
-------------------|---------------------------|----------------------|
-------------------|-----------x-x-x-x-x-x-x-x-|--0----0----0----0----|
--2----------------|--L--------x-x-x-x-x-x-x-x-|--0----0----0----0----|
--2----------------|--L--------x-x-x-x-x-x-x-x-|--0----0----0----0----|


  Q    Q    Q    Q       Q    Q    Q    Q       Q    Q    Q    E  E   
----------------------|----------------------|-----------------------|
----------------------|----------------------|-----------------------|
----------------------|----------------------|-----------------------|
--0----0----0----0----|--5----5----5----5----|--5----5----5----5--5--|
--0----0----0----0----|--5----5----5----5----|--5----5----5----5--5--|
--0----0----0----0----|--5----5----5----5----|--5----5----5----5--5--|


  Q    Q    Q    Q       Q    Q    Q    Q       Q    Q    Q    Q     
----------------------|----------------------|----------------------|
----------------------|----------------------|----------------------|
----------------------|----------------------|----------------------|
--0----0----0----0----|--0----0----0----0----|--7----7----7----7----|
--0----0----0----0----|--0----0----0----0----|--7----7----7----7----|
--0----0----0----0----|--0----0----0----0----|--7----7----7----7----|


  Q    Q    Q    Q       Q    Q    Q    Q       Q    Q    Q    Q     
----------------------|----------------------|----------------------|
----------------------|----------------------|----------------------|
----------------------|----------------------|----------------------|
--7----7----7----7----|--0----0----0----0----|--0----0----0----0----|
--7----7----7----7----|--0----0----0----0----|--0----0----0----0----|
--7----7----7----7----|--0----0----0----0----|--0----0----0----0----|


  Q    Q    Q    Q       Q    Q    Q    E  E     Q    Q    Q    Q     
----------------------|-----------------------|----------------------|
----------------------|-----------------------|----------------------|
----------------------|-----------------------|----------------------|
--5----5----5----5----|--5----5----5----5--5--|--0----0----0----0----|
--5----5----5----5----|--5----5----5----5--5--|--0----0----0----0----|
--5----5----5----5----|--5----5----5----5--5--|--0----0----0----0----|


  Q    Q    Q    Q       E  E  E  E  E  E  E  E     E  E  E  E  E  E  E  E   
----------------------|--------------------------|--------------------------|
----------------------|--------------------------|--------------------------|
----------------------|--------------------------|--------------------------|
--0----0----0----0----|--7--7--7--7--x--9--x--5--|--L--5--5--5--------------|
--0----0----0----0----|--7--7--7--7--x--9--x--5--|--L--5--5--5--------------|
--0----0----0----0----|--7--7--7--7--x--9--x--5--|--L--5--5--5--5--4--2--4--|


  PM PM PM      PM PM                PM PM PM PM PM     
  E  E  E  Q    E  E  E     H        S  S  S  S  E  E   
-------------------------|-----------------------------|
-------------------------|-----------------------------|
-------------------------|-----------------------------|
-------------------------|-----------------------------|
--0--0--0-------0--0-----|-----------0--0--0--0--0-----|
--0--0--0-------0--0-----|-----------0--0--0--0--0-----|


  PM PM PM      PM PM                PM PM PM PM PM     
  E  E  E  Q    E  E  E     H        S  S  S  S  E  E   
-------------------------|-----------------------------|
-------------------------|-----------------------------|
-------------------------|-----------------------------|
-------------------------|-----------------------------|
--0--0--0-------0--0-----|-----------0--0--0--0--0-----|
--0--0--0-------0--0-----|-----------0--0--0--0--0-----|


  PM PM PM      PM PM                PM PM PM PM PM     
  E  E  E  Q    E  E  E     H        S  S  S  S  E  E   
-------------------------|-----------------------------|
-------------------------|-----------------------------|
-------------------------|-----------------------------|
-------------------------|-----------------------------|
--0--0--0-------0--0-----|-----------0--0--0--0--0-----|
--0--0--0-------0--0-----|-----------0--0--0--0--0-----|


  PM PM PM      PM PM                PM PM PM PM PM     
  E  E  E  Q    E  E  E     H        S  S  S  S  E  E   
-------------------------|-----------------------------|
-------------------------|-----------------------------|
-------------------------|-----------------------------|
-------------------------|-----------------------------|
--0--0--0-------0--0-----|-----------0--0--0--0--0-----|
--0--0--0-------0--0-----|-----------0--0--0--0--0-----|


  PM PM PM      PM PM                PM PM PM PM PM     
  E  E  E  Q    E  E  E     H        S  S  S  S  E  E   
-------------------------|-----------------------------|
-------------------------|-----------------------------|
-------------------------|-----------------------------|
-------------------------|-----------------------------|
--0--0--0-------0--0-----|-----------0--0--0--0--0-----|
--0--0--0-------0--0-----|-----------0--0--0--0--0-----|


  PM PM PM      PM PM                PM PM PM PM PM     
  E  E  E  Q    E  E  E     H        S  S  S  S  E  E   
-------------------------|-----------------------------|
-------------------------|-----------------------------|
-------------------------|-----------------------------|
-------------------------|-----------------------------|
--0--0--0-------0--0-----|-----------0--0--0--0--0-----|
--0--0--0-------0--0-----|-----------0--0--0--0--0-----|


  PM PM PM      PM PM                PM PM PM PM PM     
  E  E  E  Q    E  E  E     H        S  S  S  S  E  E   
-------------------------|-----------------------------|
-------------------------|-----------------------------|
-------------------------|-----------------------------|
-------------------------|-----------------------------|
--5--5--5-------5--5-----|-----------5--5--5--5--5-----|
--5--5--5-------5--5-----|-----------5--5--5--5--5-----|


  PM PM PM      PM PM                PM PM PM PM PM     
  E  E  E  Q    E  E  E     H        S  S  S  S  E  E   
-------------------------|-----------------------------|
-------------------------|-----------------------------|
-------------------------|-----------------------------|
-------------------------|-----------------------------|
--0--0--0-------0--0-----|-----------0--0--0--0--0-----|
--0--0--0-------0--0-----|-----------0--0--0--0--0-----|


     PM PM PM PM    PM PM PM PM    PM PM    PM PM                        
  E  S  S  S  S  E  S  S  S  S  E  S  S     S  S  E  E  E  E   E  E  E   
-----------------------------------------|------------------------------|
-----------------------------------------|------------------------------|
-----------------------------------------|------------------------------|
-----------------------------------------|------------------------------|
--7--7--7--7--7--7--7--7--7--7--7--7--7--|--7--7--5--5--5--5s--7--------|
--7--7--7--7--7--7--7--7--7--7--7--7--7--|--7--7--5--5--5--5s--7--------|


  Q    Q    Q    Q       Q    Q    Q    Q       Q    Q    Q    Q     
----------------------|----------------------|----------------------|
----------------------|----------------------|----------------------|
----------------------|----------------------|----------------------|
--0----0----0----0----|--0----0----0----0----|--5----5----5----5----|
--0----0----0----0----|--0----0----0----0----|--5----5----5----5----|
--0----0----0----0----|--0----0----0----0----|--5----5----5----5----|


  Q    Q    Q    E  E     Q    Q    Q    Q       Q    Q    Q    Q     
-----------------------|----------------------|----------------------|
-----------------------|----------------------|----------------------|
-----------------------|----------------------|----------------------|
--5----5----5----5--5--|--0----0----0----0----|--0----0----0----0----|
--5----5----5----5--5--|--0----0----0----0----|--0----0----0----0----|
--5----5----5----5--5--|--0----0----0----0----|--0----0----0----0----|


  Q    Q    Q    Q       Q    Q    Q    Q       Q    Q    Q    Q     
----------------------|----------------------|----------------------|
----------------------|----------------------|----------------------|
----------------------|----------------------|----------------------|
--7----7----7----7----|--7----7----7----7----|--0----0----0----0----|
--7----7----7----7----|--7----7----7----7----|--0----0----0----0----|
--7----7----7----7----|--7----7----7----7----|--0----0----0----0----|


  Q    Q    Q    Q       Q    Q    Q    Q       Q    Q    Q    E  E   
----------------------|----------------------|-----------------------|
----------------------|----------------------|-----------------------|
----------------------|----------------------|-----------------------|
--0----0----0----0----|--5----5----5----5----|--5----5----5----5--5--|
--0----0----0----0----|--5----5----5----5----|--5----5----5----5--5--|
--0----0----0----0----|--5----5----5----5----|--5----5----5----5--5--|


  Q    Q    Q    Q       Q    Q    Q    Q       E  E  E  E  E  E  E  E   
----------------------|----------------------|--------------------------|
----------------------|----------------------|--------------------------|
----------------------|----------------------|--------------------------|
--0----0----0----0----|--0----0----0----0----|--7--7--7--7--x--9--x--5--|
--0----0----0----0----|--0----0----0----0----|--7--7--7--7--x--9--x--5--|
--0----0----0----0----|--0----0----0----0----|--7--7--7--7--x--9--x--5--|


                             PM PM PM      PM PM     
  E  E  E  E  E  E  E  E     E  E  E  Q    E  E  E   
--------------------------|-------------------------|
--------------------------|-------------------------|
--------------------------|-------------------------|
--L--5--5--5--------------|-------------------------|
--L--5--5--5--------------|--0--0--0-------0--0-----|
--L--5--5--5--5--4--2--4--|--0--0--0-------0--0-----|


           PM PM PM PM PM       PM PM PM      PM PM     
  H        S  S  S  S  E  E     E  E  E  Q    E  E  E   
-----------------------------|-------------------------|
-----------------------------|-------------------------|
-----------------------------|-------------------------|
-----------------------------|-------------------------|
-----------0--0--0--0--0-----|--0--0--0-------0--0-----|
-----------0--0--0--0--0-----|--0--0--0-------0--0-----|


           PM PM PM PM PM       PM PM PM      PM PM     
  H        S  S  S  S  E  E     E  E  E  Q    E  E  E   
-----------------------------|-------------------------|
-----------------------------|-------------------------|
-----------------------------|-------------------------|
-----------------------------|-------------------------|
-----------0--0--0--0--0-----|--0--0--0-------0--0-----|
-----------0--0--0--0--0-----|--0--0--0-------0--0-----|


           PM PM PM PM PM                                    
  H        S  S  S  S  E  E     S S S S E  E  E  E  S S S S  
-----------------------------|------------------------------|
-----------------------------|------------------------------|
-----------------------------|------------------------------|
-----------------------------|----------7--5-----4----------|
-----------0--0--0--0--0-----|--0-0-0-0---------------------|
-----------0--0--0--0--0-----|--0-0-0-0-------0-----0-0-0-0-|


                                PM PM   
  E  E  S S S S E  E   E  E     E  E    
-----------------------------|--------||
-----------------------------|--------||
-----------------------------|--------||
----------------------/2--4--|--------||
--4--5-------------5---------|--0--0--||
--------0-0-0-0-5------------|--0--0--||




Duration Legend
---------------
W - whole
H - half
Q - quarter
E - 8th
S - 16th
T - 32nd
X - 64th
. - note dotted
|-n-|  - n-tuplets


Tablature Legend
----------------
L - tied note
x - dead note
g - grace note
(n) - ghost note
> - accentuded note
NH - natural harmonic
AH - artificial harmonic
TH - tapped harmonic
SH - semi harmonic
PH - pitch harmonic
h - hammer on
p - pull off
b - bend
br - bendRelease
pb - preBend
pbr - preBendRelease
brb - bendReleaseBend
\n/ - tremolo bar dip
\n - tremolo bar dive
-/n - tremolo bar Release up
/n\ - tremolo bar inverted dip
/n - tremolo bar return
-\n - tremolo bar Release down
S - shift slide
s - legato slide
/ -  slide into from below or out of upwards
\ -  slide into from above or out of downwards
~ - vibrato
W - wide vibrato
tr - trill
TP - tremolo picking
T - tapping
S - slap
P - pop
< - fade in
^ - brush up
v - brush down


Tap to rate this tab
# A B C D E F G H I J K L M N O P Q R S T U V W X Y Z