Song name
# A B C D E F G H I J K L M N O P Q R S T U V W X Y Z

Four Year Strong - Abandon Ship Or Abandon All Hope tab

Tuning - Drop D                                        Date - 6/11/08
Artist - Four Year Strong
Song - Abandon Ship Or Abandon All Hope
Notes? - This is my first tab.  Also, I don't have the whole song, but I can give you 
basic entire jist of how it goes, w/ the chords and stuff.
There wasn't really a tab for this that satisfied me enough, so I attempted my own 
of it.  Enjoy.

Intro:

e--------------------------------------------------|
B--------------------------------------------------|
G--------------------------------------------------|
D--------------------------------------------------|
A-----12\2p0-----2-0-2-0-2h4-----------------------|
D-0---------------------------0--000---------------|

e--------------------------------------------------|
B--------------------------------------------------|
G--------------------------------------------------|
D--------------------------------------------------|
A---------------------------4h5p4---2-0-2-0-2h4h5--|
D--000--2-0-2-0-2h4--000---------------------------|


e--------------------------------------------------|
B--------------------------------------------------|
G--------------------------------------------------|
D--------------------------------------------------|
A--------------------------------------------------|
D--0-000---000---0-2-0-2-0-2h4--0-000-0------------|

e--------------------------------------------------|
B--------------------------------------------------|
G--------------------------------------------------|
D---7-777---777-0-000---000-----2-222----0-000-----|
A---7-777---777-0-000---000-----2-222----0-000-----|
D---7-777---777-0-000---000-----2-222----0-000-----|

e--------------------------------------------------|
B--------------------------------------------------|
G--------------------------------------------------|
D---7-777---777-0-000---000-----2-222----0-000-----|
A---7-777---777-0-000---000-----2-222----0-000-----|
D---7-777---777-0-000---000-----2-222----0-000-----|

e--------------------------------------------------|
B--------------------------------------------------|
G--------------------------------------------------|
D---7-777---777\-2-222---222h4---4-444--4-4-4-4-4-4|
A---7-777---777\-2-222---222h4---4-444--4-4-4-4-4-4|
D---7-777---777\-2-222---222h4---4-444--4-4-4-4-4-4|

e--------------------------------------------------|
B--------------------------------------------------|
G--------------------------------------------------|
D---7-777---777\-2-222---222h4---4-444--4-4-4-4-4-4|
A---7-777---777\-2-222---222h4---4-444--4-4-4-4-4-4|
D---7-777---777\-2-222---222h4---4-444--4-4-4-4-4-4|

e--------------------------------------------------|
B--------------------------------------------------|
G--------------------------------------------------|
D---7-777---777/-9-999---999\-4--4-444--4-4-4-4-4-4|
A---7-777---777/-9-999---999\-4--4-444--4-4-4-4-4-4|
D---7-777---777/-9-999---999\-4--4-444--4-4-4-4-4-4|

e--------------------------------------------------|
B--------------------------------------------------|
G--------------------------------------------------|
D--/7-777---777--9-999---999\-4--4-444--4-4-4-4-4-4|
A--/7-777---777--9-999---999\-4--4-444--4-4-4-4-4-4|
D--/7-777---777--9-999---999\-4--4-444--4-4-4-4-4-4|

e--------------------------------------------------|
B-------not sure here so play around---------------|
G-------with these chords--------------------------|
D------4-------0--------4----------0---------------| let the 0 ring
A------4--and--0---and--4----------0---------------|         0 after
D------4-------0--again-4----------0---------------|         0
                 i think
e--------------------------------------------------------|
B--------------------------------------------------------|
G--------------------------------------------------------|
D---7----/9---h11--0-000---2/4--0-000--0----7-----0-000--|
A---7----/9---h11--0-000---2/4--0-000--0----7-----0-000--|
D---7-x12/9x12h11--0-000---2/4--0-000--0x5--7x10--0-000--|
          eleven not 1

e--------------------------------------------------------|
B--------------------------------------------------------|
G--------------------------------------------------------|
D---7----\5---h9---0-000---2/4--0-000--0----7-----0-000--|
A---7----\5---h9---0-000---2/4--0-000--0----7-----0-000--|
D---7-x12\5x12h9---0-000---2/4--0-000--0x5--7x10--0-000--|

e--------------------------------------------------------|
B--------------------------------------------------------|
G--------------------------------------------------------|
D----4-444---0-000-------4-44--444\3-33--333/7-77-7-7-7-7|
A----4-444---0-000-------4-44--444\3-33--333/7-77-7-7-7-7|
D----4-444---0-000-------4-44--444\3-33--333/7-77-7-7-7-7|

e--------------------------------------------------------|
B--------------------------------------------------------|
G--------------------------------------------------------|
D---\4-44--444\3-33--333/7-777/9-99-9999-----------------|
A---\4-44--444\3-33--333/7-777/9-99-9999-----------------|
D---\4-44--444\3-33--333/7-777/9-99-9999-----------------|
                                   |-pm-|
e----------------------------------------------------------|
B----------------------------------------------------------|
G----------------------------------------------------------|
D---4444\3333\2222/3333/4444\3333\2222/3333----------------|
A---4444\3333\2222/3333/4444\3333\2222/3333----------------|
D---4444\3333\2222/3333/4444\3333\2222/3333----------------|
   |------------palm mute----------------------------------|

e--------------------------------------------------------|
B----figure this part out, not too hard, just involves---|
G-------these two chords---------------------------------|
D------------44444-------00000-----44444----00000--------|
A------------44444-------00000-----44444----00000--------|
D------------44444-------00000-----44444----00000--------|

e--------------------------------------------------------|
B--------------------------------------------------------|
G--------------------------------------------------------|
D---7----/9---h11--0-000---2/4--0-000--0----7-----0-000--|
A---7----/9---h11--0-000---2/4--0-000--0----7-----0-000--|
D---7-x12/9x12h11--0-000---2/4--0-000--0x5--7x10--0-000--|
          eleven not 1

e--------------------------------------------------------|
B--------------------------------------------------------|
G--------------------------------------------------------|
D---7----\5---h9---0-000---2/4--0-000--0----7-----0-000--|
A---7----\5---h9---0-000---2/4--0-000--0----7-----0-000--|
D---7-x12\5x12h9---0-000---2/4--0-000--0x5--7x10--0-000--|
let the last chord ring here (don't know the higher pitched notes)

e---do this twice more after this first time-------------|
B--------------------------------------------------------|
G--------------------------------------------------------|
D---0------2------4-------2------0-----------------------|
A---0------2------4-------2------0-----------------------|
D---0x8----2x8----4x8-----2x8----0x8---------------------|

e---due to my laziness, and it's getting late------------|
B---this is where im going to stop, because i think you--|
G---be able to figure this out on your own, all it is----|
D---from here is basically repeating the little parts----|
A---of the intro, so thanks for using my tab, hope it----|
D---was worth your time, rate, comment, give advice------|

Thanks.

1st Tab, was tiresome but worth it.
Tap to rate this tab
# A B C D E F G H I J K L M N O P Q R S T U V W X Y Z