Song name
# A B C D E F G H I J K L M N O P Q R S T U V W X Y Z

Fourbanger - More Than Meets The Eye tab

This is the coolest band ever. It doesn't get any better than FourBanger
And this is the best song on this album so here it is. I'm gonna try to do
the whole album so check it out if you're obsessed with them to. 
-enjoi
this song is only rythm guitar right now 
PM= Palm mute (incase you didn't know) 


intro
PM.............
|------------------------|--------------------------|-------|
|------------------------|--------------------------|-------|
|----------------55--77--|77777777------------------|55xxx77|
|33--33--33--33--55--77--|777777777777777755555555--|55xxx77|         
|33--33--33--33--33--55--|555555557777777755555555--|33xxx55|          
|11--11--11--11----------|--------5555555533333333--|-------|       


|--------------------------|------------------|
|--------------------------|------------------|
|77777777------------------|55xxx77--------5~-|
|777777777777777755555555--|55xxx77--33333-5~-|
|555555557777777755555555--|33xxx55--xxxxx-3~-|
|--------5555555533333333--|---------11111----|

Verse#1
|------------------------------------------------|
|------------------------------------------------|
|7~----------------------------------------------|
|7~----------7~----------5~----------9~----------|[X3]
|5~----------7~----------5~----------9~----------|
|------------5~----------3~----------7~----------|

Chorus:
|-------------------------------|-------|
|-------------------------------|-------|
|7777777777---------------------|55xxx77|
|777777777777777777775555555555-|55xxx77|
|555555555577777777775555555555-|33xxx55|
|----------55555555553333333333-|-------|

|--------------------------|------------------|
|--------------------------|------------------|
|77777777------------------|55xxx77--------5~-|
|777777777777777755555555--|55xxx77--33333-5~-|
|555555557777777755555555--|33xxx55--xxxxx-3~-|
|--------5555555533333333--|---------11111----|

Verse#2
|------------------------------------------------|
|------------------------------------------------|
|7~----------------------------------------------|
|7~----------7~----------5~----------9~----------|[X3]
|5~----------7~----------5~----------9~----------|
|------------5~----------3~----------7~----------|

Chorus:
|-------------------------------|-------|
|-------------------------------|-------|
|7777777777---------------------|55xxx77|
|777777777777777777775555555555-|55xxx77|
|555555555577777777775555555555-|33xxx55|
|----------55555555553333333333-|-------|

|--------------------------|------------------|
|--------------------------|------------------|
|77777777------------------|55xxx77--------5~-|
|777777777777777755555555--|55xxx77--33333-5~-|
|555555557777777755555555--|33xxx55--xxxxx-3~-|
|--------5555555533333333--|---------11111----|

Verse#3
PM...............................
|----------------------------------|
|----------------------------------|
|77777777--------------------------|
|77777777777777779999999955555555--| [x3]
|55555555777777779999999955555555--|       pause after the second time then
|--------555555557777777733333333--|       do it once more  

Chorus:
|-------------------------------|-------|
|-------------------------------|-------|
|7777777777---------------------|55xxx77|
|777777777777777777775555555555-|55xxx77|
|555555555577777777775555555555-|33xxx55|
|----------55555555553333333333-|-------|

|--------------------------|------------------|
|--------------------------|------------------|
|77777777------------------|55xxx77--------5~-|
|777777777777777755555555--|55xxx77--33333-5~-|
|555555557777777755555555--|33xxx55--xxxxx-3~-|
|--------5555555533333333--|---------11111----|


well that's it and I'm tired of listening to the same song over and over again
I sure hope I got it right but I probably didn't oh well that's it 
c-ya
Tap to rate this tab
# A B C D E F G H I J K L M N O P Q R S T U V W X Y Z