Song name
# A B C D E F G H I J K L M N O P Q R S T U V W X Y Z

Fourbanger - Sunday Afternoon tab

this is another song off their album it's called suday afternoon it's a gr8 song 
artist: fourbanger
song: sunday afternoon
tabber: justin

PM = palm muted

intro/verse:
|----------------|-------------------------|
|----------------|-------------------------|
|77------77------|7------------------------|
|77------77------|7----7----99--77--77--5--|
|55------55------|5----7----99--77--77--5--|
|----------------|-----5----77--55--55--3--|


PM................................
Verse:
|--------------------------------|
|--------------------------------|
|77777777------------------------|  X4
|77777777777777779999999977777777|
|55555555777777779999999977777777|
|--------555555557777777755555555|

Chorus: first part twice
|------------------------------------|----------------------------------|
|------------------------------------|----------------------------------|
|77777777----------------------------|77777777--------------------------|
|7777777777777777-99--99--77--77-----|77777777777777779999999977777777x5|
|5555555577777777-99--99--77--77-----|55555555777777779999999977777777x5|
|--------55555555-77--77--55--55-----|--------555555557777777755555555x3|
       
 Verse:
|--------------------------------|
|--------------------------------|
|77777777------------------------|  X4
|77777777777777779999999977777777|
|55555555777777779999999977777777|
|--------555555557777777755555555|

Chorus: first part twice
|------------------------------------|----------------------------------|
|------------------------------------|----------------------------------|
|77777777----------------------------|77777777--------------------------|
|7777777777777777-99--99--77--77-----|77777777777777779999999977777777x5|
|5555555577777777-99--99--77--77-----|55555555777777779999999977777777x5|
|--------55555555-77--77--55--55-----|--------555555557777777755555555x3|
       
(Bass and drum part)


 PM................................
Verse:
|--------------------------------|
|--------------------------------|
|77777777------------------------|  x2
|77777777777777779999999977777777|
|55555555777777779999999977777777|
|--------555555557777777755555555   

|-------------|---------------------------------------------
|-------------|---------------------------------------------
|77----77-----|7777777777------------------------77777777---
|77----77-----|7777777777777777779999999977777777777777777--
|55----55-----|5555555555777777779999999977777777555555557--
|-------------|----------5555555577777777555555555-------5--

Chorus: first part twice and second part twice
|------------------------------------|----------------------------------|
|------------------------------------|----------------------------------|
|77777777----------------------------|77777777--------------------------|
|7777777777777777-99--99--77--77-----|77777777777777779999999977777777x5|
|5555555577777777-99--99--77--77-----|55555555777777779999999977777777x5|
|--------55555555-77--77--55--55-----|--------555555557777777755555555x3|

great great song and great great words.  I think I did a hecka lot better on
this than the second one
Tap to rate this tab
# A B C D E F G H I J K L M N O P Q R S T U V W X Y Z