Song name
# A B C D E F G H I J K L M N O P Q R S T U V W X Y Z

Fourbanger - My Turn tab

this is pretty dang close to what it is I just don't have the right strumming
pattern on the chorus. it's really easy you could figure it out easy.
PM = palm muted

intro/verse: clean - kinda pick individually
|-----------------------------|
|4444444----------------------|
|44444443333333-------3333333-|  X2
|4444444444444466666664444444-|
|2222222444444466666664444444-|
|-------222222244444442222222-|

chorus:distortion
|xxx---------------------------------------------------|
|xxx---------------------------------------------------|
|xxx---------------------------------------------------|
|xxx2222222244444444666666664444444422222222-----------|
|xxx2222222244444444666666664444444422222222-----------|
|xxx0000000022222222444444442222222200000000-9-11-13-11|

|-------------------------------------------------------|
|-------------------------------------------------------|
|-------------------------------------------------------|
|2222222244444444666666664444444422222222xx2----6-2-4---|
|2222222244444444666666664444444422222222xx2----6-2-4---|
|0000000022222222444444442222222200000000xx0----4-0-2---|

|---------------------------------------------------------------------------|
|---------------------------------------------------------------------------|
|---------------------------------------------------------------------------|
|22222222x4444444466666666444444442222222244444444666666664444444422222222--|
|22222222x4444444466666666444444442222222244444444666666664444444422222222--|
|00000000x2222222244444444222222220000000022222222444444442222222200000000--|

|----------------------------|
|----------------------------|
|----------------------------|
|666666644444444466x44x6-4-2-|
|666666644444444466x44x6-4-2-|
|444444422222222244x22x4-2-0-|

verse: clean - kinda pick individually
|-----------------------------|
|4444444----------------------|
|44444443333333-------3333333-|  X2
|4444444444444466666664444444-|
|2222222444444466666664444444-|
|-------222222244444442222222-|

chorus:distortion
|xxx---------------------------------------------------|
|xxx---------------------------------------------------|
|xxx---------------------------------------------------|
|xxx2222222244444444666666664444444422222222-----------|
|xxx2222222244444444666666664444444422222222-----------|
|xxx0000000022222222444444442222222200000000-9-11-13-11|

|-------------------------------------------------------|
|-------------------------------------------------------|
|-------------------------------------------------------|
|2222222244444444666666664444444422222222xx2----6-2-4---|
|2222222244444444666666664444444422222222xx2----6-2-4---|
|0000000022222222444444442222222200000000xx0----4-0-2---|

|---------------------------------------------------------------------------|
|---------------------------------------------------------------------------|
|---------------------------------------------------------------------------|
|22222222x4444444466666666444444442222222244444444666666664444444422222222--|
|22222222x4444444466666666444444442222222244444444666666664444444422222222--|
|00000000x2222222244444444222222220000000022222222444444442222222200000000--|

|----------------------------|
|----------------------------|
|----------------------------|
|666666644444444466x44x6-4-2-|
|666666644444444466x44x6-4-2-|
|444444422222222244x22x4-2-0-|



verse: distorion
|------------------------------|
|4-----------------------------|
|4-----3-------------3---------|  X2
|4-----4-----6-------4---------|
|2-----4-----6-------4---------|
|------2-----4-------2---------|

interlude thing
                            
|-------------------------|                             |---|
|4--4--4-4-4--------------|                             |---|
|4--4--4-4-4--------------|X3                           |---|
|x--x--x-x-x-4--4--4-4-4--|                             |-4-|
|2--2--2-2-2-x--x--x-x-x--|    on the last time let the |-x-|ring
|------------2--2--2-2-2--|                             |-2-|

BASS AND DRUMS PART

chorus:distortion
|xxx-----------------------------------------|
|xxx-----------------------------------------|
|xxx-----------------------------------------|  x3
|xxx2222222244444444666666664444444422222222-|
|xxx2222222244444444666666664444444422222222-|
|xxx0000000022222222444444442222222200000000-|
Tap to rate this tab
# A B C D E F G H I J K L M N O P Q R S T U V W X Y Z