Guitaretab - guitar tabs
Song name
# A B C D E F G H I J K L M N O P Q R S T U V W X Y Z

Foxboro Hot Tubs - Stop Drop And Roll tab

-----------------------------------------------------------------
Stop Drop and Roll - Foxboro Hot Tubs
-----------------------------------------------------------------
Tabbed by: Zach Galland
Email: z_94_g@hotmail.com
Tuning: Standard

This is the title track off of the Stop Drop and Roll EP by the Foxboro Hot Tubs. The 
Hot Tubs are supposedly Greenday in disguise. If I have anything wrong, email me and Iíll 
to fix it. The other one didn't have the solo, so here we go. ORDER AT BOTTOM!!

Intro

(harmonic is a natural harmonic over the 5th fret)

e|---x-+--------------|
B|--------------------|
G|--------------------|
D|--------------------|
A|--------------------|
E|--------------------|

Main Riff

e|----------------------|
B|77777-5---------------|
G|77777-5--5------------|
D|77777-5--5------------|
A|55555-3--3------------|
E|----------------------|

Verse
e|-----------------------------------|
B|-----------------------------------|
G|5-6-7---5-6-7---5-6-7---77777777---|
D|5-6-7---5-6-7---5-6-7---77777777---|
A|3-4-5---3-4-5---3-4-5---55555555---|
E|-----------------------------------|

Chorus

e|-------------------------|
B|1212121212-10------------|
G|1212121212-10-10---------|
D|1212121212-10-10---------|x4
A|1010101010-8--8----------|
E|-------------------------|
[ Tab from: http://www.guitaretab.com/f/foxboro-hot-tubs/100247.html ]
Solo
(Main Riff plays underneath 8 times)
e|-------------------------------------------------------|
B|-----12-----------------------------------------12br---|
G|/12b-12-1212b---/12b-12-12b12b---/12b-12b-1212b-12br---|
D|-------------------------------------------------------|
A|-------------------------------------------------------|
E|-------------------------------------------------------|
Bridge

e|------------------------------|
B|------------------------------|
G|77777777-1010101010101010-----|
D|77777777-1010101010101010-----|x2
A|55555555-8-8-8-8-8-8-8-8------|
E|------------------------------|

Solo
(cont.)
e|---------------------------------------------------------------|
B|1212v-1010v-1212v-1010v-1212v-1010v-1212v-1010v---12b(14)rv~---|
G|1212v-1010v-1212v-1010v-1212v-1010v-1212v-1010v-1212b(14)rv~---|
D|---------------------------------------------------------------|
A|---------------------------------------------------------------|
E|---------------------------------------------------------------|

Order: Main Riff x12
Verse
Chorus
Main Riff x4
Bridge
Main Riff x4
Verse
Chorus
Main Riff x4
Bridge
Solo (Main riff underneath x8)
Chorus
Main Riff x4
Bridge x2
Main Riff x4

Enjoy!

| /  slide up
| \  slide down
| h  hammer-on
| p  pull-off
| ~  vibrato
| +  harmonic
| x  Mute note
Related for Stop Drop And Roll tab