Song name
# A B C D E F G H I J K L M N O P Q R S T U V W X Y Z

Foxboro Hot Tubs - Ruby Room tab

Hope this is helpful and clear, ive never made a tab before online. The end of the
might be missing a few notes that i could pick up on clearly but other than that its 
accurate.

TUNING: Standard

NOTATION KEY:
r=rest
1=quaternote
.5=half note
.=measure marker
b=bend
~=vibrato


INTRO-sixteenth notes, repeat 2x
e-----------------------------------------------------------------------------|
b-----------------------------------------------------------------------------|
g-----------------------------------------------------------------------------|
d-----------------------------------------------------------------------------|
a-9-9-9-9--9-9-9-9--9-9-9-9--9-9-9-9-.----------------------------------------|
E-7-7-7-7--7-7-7-7--7-7-7-7--7-7-7-7-.----------------------------------------|

VERSE
Fourteen street; Booze and swallow
I'm gonna drown my sorrow
Dirty floors and sticky tables
For the willing, and the able
e-----------------------------------------------------------------------------|
b-----------------------------------------------------------------------------|
g-----------------------------------------------------------------------------|
d-----7-7-.-----9-9-9-9-.-----------------------------------------------------|
a-9-9-5-5-.-7-7-7-7-7-7-.-----------------------------------------------------|
E-7-7-----.-5-5---------.-----------------------------------------------------|
    1   1   1  1     1   1  .5 .5 .5 .5


PRE-CHORUS
All the zombies, on a hot Friday night
e------------------------------------------------------------------------------|
b------------------------------------------------------------------------------|
g------------------------------------------------------------------------------|
d---------.---------.---------.----r--6-7-.------------------------------------|
a-5-5-5-5-.-5-5-5-5-.-4-4-4-4-.-4--r--4-5-.------------------------------------|
E-3-3-3-3-.-3-3-3-3-.-2-2-2-2-.-2--r------.------------------------------------|
    1  1   1  1      1  1   1   1     1   1  1   1      1    1     1  1

CHORUS-SAME AS VERSE
Going down to the Ruby Room
I'm gonna meet my doom
By the name of Rosie May
She's the night pick of the day, yeah

VERSE
Lucky Strike and I will travel
As the Pabst Blue Ribbon unravels
Gonna drink my hard earned pay
'Cause it doesn't matter anyway
Seein' double on a one last, one night stand!

CHORUS
Going down to the Ruby Room
I'm gonna meet my doom
By the name of Rosie May
She's a midnight pick of the day, yeah

SOLO-verse chords in background
e--------------------------------------------------7-7-----7----7---7---7---|
b--------------------------------------------------7-7----7----7---7---7----|
g-9b-9b----9b-9b-9--7----7-7----7-9-9b-9b-9b~7~----------9b--9b--9b--9b-----|
d--------------------9-9---9-9----------------9-9---------------------------|
a---------------------------------------------------------------------------|
E---------------------------------------------------------------------------|

CHORUS
Going down to the Ruby Room
I'm gonna meet my doom
By the name of Rosie May
She's a midnight pick of the day, yeah, yeah

INTRO
Going down to the Ruby Room
Going down to the Ruby room
Tap to rate this tab
 
# A B C D E F G H I J K L M N O P Q R S T U V W X Y Z