Song name
# A B C D E F G H I J K L M N O P Q R S T U V W X Y Z

Foxboro Hot Tubs - The Pedestrian tab

Ok, this is really my first tab, i'm 16 and i don't have much experience, so i tried my best.

Here we go.


The Pedestrian
by Foxboro Hot Tubs
tabbed by: atake_sorpresa (me xD)
Standard Tuning

Intro:

e|---------------------------------------|
B|---------------------------------------|
G|------------------5-5---7-7-7-7--------|
D|------5-5-5-5-5---5-5---7-7-7-7--------|
A|------5-5-5-5-5---3-3---5-5-5-5--------|
E|------3-3-3-3-3------------------------|

Verse 1:
e|-----------------------------------------------------------------|
B|-----------------------------------------------------------------|
G|------------------5-5---7-7-7-7-------------------5-5--7-7-7-7---|
D|------5-5-5-5-5---5-5---7-7-7-7--------5-5-5-5-5--5-5--7-7-7-7---|
A|------5-5-5-5-5---3-3---5-5-5-5--------5-5-5-5-5--3-3--5-5-5-5---|
E|------3-3-3-3-3------------------------3-3-3-3-3-----------------|

e|------------------------------|---------------------------|
B|------------------------------|---------------------------|
G|---------------5-5---7-7-7-7--|-------------5-5--7-7-7-7--|
D|--2-2-2-2-2----5-5---7-7-7-7--|--5-5-5-5-5--5-5--7-7-7-7--|
A|--2-2-2-2-2----3-3---5-5-5-5--|--5-5-5-5-5--3-3--5-5-5-5--|
E|--0-0-0-0-0-------------------|--3-3-3-3-3----------------|

Verse 2:
e|------------------------------------------------------|
B|------------------------------------------------------|
G|-------------5-5--7-7-7-7---------------5-5--7-7-7-7--|
D|--5-5-5-5-5--5-5--7-7-7-7----5-5-5-5-5--5-5--7-7-7-7--|
A|--5-5-5-5-5--3-3--5-5-5-5----5-5-5-5-5--3-3--5-5-5-5--|
E|--3-3-3-3-3------------------3-3-3-3-3----------------|

e|-----------------------------------------------------|
B|-----------------------------------------------------|
G|-------------5-5--7-7-7-7----------------------------|
D|--2-2-2-2-2--5-5--7-7-7-7---5-5-5-5-5-5-5-5-5-5-5-5--|
A|--2-2-2-2-2--3-3--5-5-5-5---5-5-5-5-5-5-5-5-5-5-5-5--|
E|--0-0-0-0-0-----------------3-3-3-3-3-3-3-3-3-3-3-3--|

Chorus:
e|--------------------------------------------------------------------|
B|--------------------------------------------------------------------|
G|----5--5--5-5-5-5-------------------5--5--5-5-5-5------------5------|
D|----5--5--5-5-5-5---5--5--5-5-5-5---5--5--5-5-5-5---5-5-5-5--5-5----|
A|----3--3--3-3-3-3---5--5--5-5-5-5---3--3--3-3-3-3---5-5-5-5--3-5----|
E|--------------------3--3--3-3-3-3-------------------3-3-3-3----3----|

e|-------------------------------------------------------------|
B|-------------------------------------------------------------|
G|--5--5--5-5-5-5--------------------------------------7--7----|
D|--5--5--5-5-5-5----5--5--5-5-5-5----7-7-7-7-7-7-7-7--7--5-7--|
A|--3--3--3-3-3-3----5--5--5-5-5-5----7-7-7-7-7-7-7-7--5--5-7--|
E|-------------------3--3--3-3-3-3----5-5-5-5-5-5-5-5-------5--|


Verse 1 (x1)


Solo:
e|---------------------------------------------------------------------|
B|---------------------------------------------------------------------|
G|--------------------------------------------10------12----10------14-|
D|--/555555555----2----0-----4----5----7---10----1010----10----1010----|
A|------------33---35---555---55---55----------------------------------|
E|---------------------------------------------------------------------|

e|-----------------------------------------------------------------------|
B|--12--12-12-12-13-12--10--10-10-10/12-12-12----------------------------|
G|--12--12-12-12-12-12--12--12-12-12/14-14-14--7-7-7-7-7---5--5-5-5/7-7--|
D|---------------------------------------------7-7-7-7-7---x--x-x-x/x-x--|
A|---------------------------------------------5-5-5-5-5---3--3-3-3/5-5--|
E|-----------------------------------------------------------------------|

e|---------------------------------------------------------------------|
B|---------------------------------------------------------------------|
G|--------------------------------------------10------12----10------14-|
D|--/555555555----2----0-----4----5----7---10----1010----10----1010----|
A|------------33---35---555---55---55----------------------------------|
E|---------------------------------------------------------------------|

e|--------------------------------------------------------------------------|
B|--12--12-12-12-13-12--10--10-10-10/12-12-12-------------------------------|
G|--12--12-12-12-12-12--12--12-12-12/14-14-14--7-7-7-7-7---5/7-7-7-7-7-7-7-7|
D|---------------------------------------------7-7-7-7-7---x/x-x-x-x-x-x-x-x|
A|---------------------------------------------5-5-5-5-5---3/5-5-5-5-5-5-5-5|
E|--------------------------------------------------------------------------|

Chorus

End with:
e|-------------------------------------------------------------------------------|
B|-------------------------------------------------------------------------------|
G|----------------5-------------------5-5---7-7-7-7------------5--7\-------------|
D|----2-2-2-2-2---5---5-5-5-5-5-5-5---5-5---7-7-7-7---------2--5--7\-------------|
A|----2-2-2-2-2---3---5-5-5-5-5-5-5---3-3---5-5-5-5---(x2)--2--3--5\-------------|
E|----0-0-0-0-0-------3-3-3-3-3-3-3-------------------------0--------------------|
Tap to rate this tab
# A B C D E F G H I J K L M N O P Q R S T U V W X Y Z