Guitaretab - guitar tabs
Song name
# A B C D E F G H I J K L M N O P Q R S T U V W X Y Z

Foxboro Hot Tubs - Pieces Of Truth tab

Intro

E---------------------------------------------------|
B---------------------------------------------------|
G-----------3-5-3-5b(7)-5b(7)-5b(7)-5b(7)-5b(6)-5-3-|
D---3-5-5-5-----------------------------------------|
A---------------------------------------------------|
E---------------------------------------------------|

E-------------------------------|
B-------------------------------|
G---------3---------------------|
D---5-5-5---5-3-5-3-3-3-3-3-3-4-|
A-----------------3-3-3-3-3-3-4-|
E-----------------1-1-1-1-1-1-2-|

Verse

E---------------------------------------------------------|
B---------------------------------------------------------|
G---------5-5-5-7-7-7-7-5-5-5-5-------5-5-----------------|
D---5-5-5-5-5-5-7-7-7-7-5-5-5-5-5-5-5-5-5-5-3-3-3-3-3-3-4-|
A---5-5-5-3-3-3-5-5-5-5-3-3-3-3-5-5-5-3-3-5-3-3-3-3-3-3-4-|
E---3-3-3-----------------------3-3-3-----3-1-1-1-1-1-1-2-|

Chorus

E----------------------|
B----------------------|X4
G---5b-5b-5b-5b-3------|
D---5b-5b-5b-5b-3------|
A----------------------|
E----------------------|


E---------------------------------------------------|
B---------------------------------------------------|
G-----------3-5-3-5b(7)-5b(7)-5b(7)-5b(7)-5b(6)-5-3-|
D---3-5-5-5-----------------------------------------|
A---------------------------------------------------|
E---------------------------------------------------|
[ Tab from: http://www.guitaretab.com/f/foxboro-hot-tubs/107706.html ]
E----------------------------------------------------|
B----------------------------------------------------|
G---------3------------------------------------------|
D---5-5-5---5-3-5-5-5-5-5-5-7777777777777777777777777|
A---------------------------7777777777777777777777777|
E---------------------------5555555555555555555555555|


Solo

E--------------------------------------------------------------|
B--------------------------------------------------------------|
G--------------------------------------------------------------|
D--------------------------------------------------------------|X2
A-----------1-3-1-5-5-5-5-5-3-1-------1-------3-3-3-3-3-1------|
E---1-3-3-3---------------------3-3-3---3-1-3------------------|

E-----------------------------3-3-3-3-6-3---3-3-3-3-3-3-|
B-----------------3-6-6-6-6-6-------------6-------------|
G-----------3-5-3---------------------------------------|
D---3-5-5-5---------------------------------------------|
A-------------------------------------------------------|
E-------------------------------------------------------|

E---3-3-3-3-3-----------------------------------|
B-------------6-3-------------------------------|
G-----------------6-5-3-------------------------|
D-----------------------5-5-5-5-5-3-5-5-3-5-5-5-|
A-----------------------------------------------|
E-----------------------------------------------|

Structure

Intro x 1
Verse x 3
Chorus x 1
Verse x 5
Chorus x 1
Verse x 1
Solo
Chorus x 1
Verse x 4
Chorus x 1
End on G5
Related for Pieces Of Truth tab
Advertisement will be closed in 10 seconds