Song name
# A B C D E F G H I J K L M N O P Q R S T U V W X Y Z

Foxboro Hot Tubs - Mother Mary tab

-------------------------------------------------------------------------------
			     Mother Mary - Foxboro Hot Tubs
-------------------------------------------------------------------------------
Tabbed by: Jade_Simone
Email: cyanide_sun616@hotmail.com

Tuning: Standard

(.) are Staccato, or short notes. 

Intro x2/Verse x4:
Guitar 1:
e|---------------------------------------------------------------------------|
B|---------------------------------------------------------------------------|
G|---------------------------------------------------------------------------|
D|-----------------6-6-6-66-6-666--4-4-4-44-4-444--9-9-9-99-9-999------------|
A|-7-7-7-77-7-777--4-4-4-44-4-444--2-2-2-22-2-222--7-7-7-77-7-777------------|
E|-5-5-5-55-5-555------------------------------------------------------------|
   . . . .. .      . . . .. .      . . . .. .      . . . .. .
Guitar 2:
e|-5~--------------4~--------------2~--------------7~------------------------|
B|-5~--------------4~--------------2~--------------7~------------------------|
G|-6~--------------6~--------------4~--------------9~------------------------|
D|-7~--------------6~--------------4~--------------9~------------------------|
A|-7~--------------4~--------------2~--------------7~------------------------|
E|-5~------------------------------------------------------------------------|

Chorus:
e|---------------------------------------------------------------------------|
B|---------------------------------------------------------------------------|
G|---------------------------------------------------------------------------|
D|-7-7-7-99-9-9999-------------------7-7-7-99-9-9999-------------------------|
A|-5-5-5-77-7-7777-7-7-7-77-7-7777---5-5-5-77-7-7777-7-7-7-77-7-7777---------|
E|-----------------5-5-5-55-5-5555-------------------5-5-5-55-5-5555---------|
   
e|--------------------------------------------------|------------------------|
B|--------------------------------------------------|------------------------|
G|--------------------------------------------------|------------------------|
D|-7-7-7-99-9-9999-------------------7-7-7-99-9-9999|--------------------x2--|
A|-5-5-5-77-7-7777-7-7-7-44-4-4444---5-5-5-77-7-7777|-7-7-7-77-7-7777--------|
E|-----------------5-5-5-22-2-2222------------------|-5-5-5-55-5-5555--------|
           
Guitar 2 on second verse:
e|-5~----4~----2~----7~------5~-4~-----------|
B|-5~----4~----2~----7~------------7~--5~----|
G|-6~----6~----4~----9~----------------------|
D|-7~----6~----4~----9~----------------------|
A|-7~----4~----2~----7~----------------------|
E|-5~----------------------------------------|

e|------5--5-5---4--44--2--22--7--77-----------------------------------------|
B|------5--5-5---4--44--2--22--7--77-----------------------------------------|
G|------6--6-6---6--66--4--44--9--99-----------------------------------------|
D|------7--7-7---6--66--4--44--9--99-----------------------------------------|
A|------7~-7-7---4~-44--2~-22--7~-77-----------------------------------------|
E|-12\--5~-5-5---------------------------------------------------------------|

e|-x-5-x-5-x-5-x-555---x-4-x-4-x-4-x-444---x-2-x-2-x-2-x-222-----------------|
B|-x-5-x-5-x-5-x-555---x-4-x-4-x-4-x-444---x-2-x-2-x-2-x-222-----------------|
G|-x-6-x-6-x-6-x-666---x-6-x-6-x-6-x-666---x-4-x-4-x-4-x-444-----------------|
D|-x-7-x-7-x-7-x-777---x-6-x-6-x-6-x-666---x-4-x-4-x-4-x-444--9-9-9-99-9-9999|
A|-x-7-x-7-x-7-x-777---x-4-x-4-x-4-x-444---x-2-x-2-x-2-x-222--7-7-7-77-7-7777|
E|-x-5-x-5-x-5-x-555---------------------------------------------------------|

Solo
e|------5-7--9-4-------5--5/9--7-5-----|
B|-5--7------9-4--55-7-----------5-----|
G|-------------------------------------|
D|-------------------------------------|
A|-------------------------------------|
E|-------------------------------------|

e|-------------------------------------------5555555555555555--7777-7b-7b-7b-|
B|-5-77-5-77-5-77-5-77-5-77-5-77-5-77-5-77-----------------------------------|
G|---------------------------------------------------------------------------|
D|---------------------------------------------------------------------------|
A|---------------------------------------------------------------------------|
E|---------------------------------------------------------------------------|


Do you want to elope tonight
Getting lost in the shadows
All dressed up like a switchblade knife
Let's hang in love from the gallows

Or we can take a walk around the lake
There's a garden in the park there
Under the stars next to the fireside
anywhere is better than here

Oh Mother Mary, take my hand
I'll be a saint, I'll be your man
I'll do most anything, 'cause I don't care ...
Oh Mother Mary, take my hand.

Take a ride on the midnight train
We'll fall asleep at the station
Too much wine, driving me insane
And then we'll miss our destination

Oh well, too bad, who cares, it's all right.
As long as we will stick together
In hell we'll rain in rows of sunshine
We'll watch it rise and shine forever

Oh Mother Mary, take my hand
I'll be a saint, I'll be your man
I'll do most anything, 'cause I don't care ...
Oh Mother Mary, take my hand.


| /  slide up
| \  slide down
| h  hammer-on
| p  pull-off
| ~  vibrato
| +  harmonic
| x  Mute note
===============================================================================
Tap to rate this tab
# A B C D E F G H I J K L M N O P Q R S T U V W X Y Z