Song name
# A B C D E F G H I J K L M N O P Q R S T U V W X Y Z

Foxboro Hot Tubs - Alligator tab

Sorry i haven't been able to figure out the solo.

-------------------------------------------------------------------------------
			     ALLIGATOR - Foxboro Hot Tubs
-------------------------------------------------------------------------------
Tabbed by:MattH


Tuning:Standard

0:00-0:21
Into/Verse
e|------------------|
B|------------------|
G|------------------|
D|-4\6-6--4\6-------|
A|-4\6-6--4\6-------|
E|-2\4-4--2\4-------|
Repeat until prechorus
0:22-0:30
PreChorus
e|------------------|
B|------------------|
G|------------------|
D|-6\8-8--6\8-------|
A|-6\8-8--6\8-------|
E|-4\6-6--4\6-------|
0:30-0:42
Chorus
e|------------------|
B|------------------|
G|-6\8-8--6\8-------|
D|-6\8-8--6\8-------|
A|-4\6-6--4\6-------|
E|------------------|
Bridge/Post-Chorus
e|------------------|
B|------------------|
G|--------6-6-------|
D|-6~-----4-4-6-6~--|
A|-6~-----4-4-6-6~--|
E|-4~---------4-4~--|Repeat
2:14
Outro
e|--------------|
B|--------------|
G|---8-8~-------|
D|---8-8~-------|
A|---6-6~-------|
E|--------------|
Play this at the end going out of the last chorus.

Pretty simple. Hopefully you can figure out the order for yourself. 
It pretty much plays the whole song over. 
The Rhythm guitar plays the intro during the solo.


| /  slide up
| \  slide down
| h  hammer-on
| p  pull-off
| ~  vibrato
| +  harmonic
| x  Mute note
===============================================================================

Tap to rate this tab
# A B C D E F G H I J K L M N O P Q R S T U V W X Y Z