Song name
# A B C D E F G H I J K L M N O P Q R S T U V W X Y Z

Foxboro Hot Tubs - Its Fuck Time tab

-------------------------------------------------------------------------------
	             It's Fuck Time - Foxboro Hot Tubs
-------------------------------------------------------------------------------
Tabbed by:greendaypunkrox
Email:

Tuning:Standard

Intro
e|------------------x-x--x-x-x--x-x-x---------------------------------------|
B|------------------x-x--x-x-x--x-x-x---------------------------------------|
G|-----7-7-7--9-----x-x--x-x-x--x-x-x---------------------------------------|
D|-----7-7-7--9-----x-x--x-x-x--x-x-x----X6---------------------------------|
A|-----5-5-5--7-----x-x--x-x-x--x-x-x---------------------------------------|
E|------------------x-x--x-x-x--x-x-x---------------------------------------|

Chorus
e|--------------------------------------------------------------------------|
B|--------------------------------------------------------------------------|
G|--------------------------------------------------------------------------|
D|----------2-2--4-2----------2-2--4-2--------------------------------------|
A|-0-0--4-4----------0-0--4-4-------------------2-2--4-2----------2-2--4-2--|
E|-------------------------------------0-0--4-4----------0-0--4-4-----------|

e|--------------------------------------------------------------------------|
B|--------------------------------------------------------------------------|
G|--------------------------------------------------------------------------|
D|----------2-2--4-2---------2-2--4-2----(4b)-x16---------------------------|
A|-0-0--4-4----------0-0--4-4-----------------------------------------------|
E|--------------------------------------------------------------------------|

After Chorus
e|--------------------------------------------------------------------------|
B|--------------------------------------------------------------------------|
G|--------------------------------(5-5-5-5)---------------------------------|
D|--2-2-2-2---5-5-5-5---7-7-7-7---(5-5-5-5)-x16-----------------------------|
A|--2-2-2-2---5-5-5-5---7-7-7-7---(3-3-3-3)---------------------------------|
E|--0-0-0-0---3-3-3-3---5-5-5-5---------------------------------------------|

e|--------------------------------------------------------------------------|
B|------------------15b-----------------------------------------------------|
G|-----7-7-7--9/------------------------------------------------------------|
D|-----7-7-7--7/------------------------------------------------------------|
A|-----5-5-5--7/------------------------------------------------------------|
E|--------------------------------------------------------------------------|

Thats Pretty Much All Of The Parts Of The Song. You Can Fill In These Parts I Tabbed Out 
The Whole Song. I Don't Know The Solo. Feel Free To Leave A Comment.

************************************

| /   slide up
| \   slide down
| h   hammer-on
| p   pull-off
| ~   vibrato
| +   harmonic
| x   Mute note
| b   Bend
| pb  Pre-bend
| br  Bend release
| pbr Pre-bend release
| brb Bend release bend

************************************
Tap to rate this tab
# A B C D E F G H I J K L M N O P Q R S T U V W X Y Z