Song name
# A B C D E F G H I J K L M N O P Q R S T U V W X Y Z

Foxy Shazam - Seagulls Over Rhinosouras Bay Part 1 tab

Guitar 1 - Medium Distortion
Guitar 2 - Light Distortion

Guitar 1 - RIFF 1
     use all downstrokes

e|------------------------------|
B|------------------------------|
G|------------------------------|   X2
D|------------------------------|
A|6-6-6-6-xx-6-6-6-6-xx-6-6-6-x-|
E|4-4-4-4-xx-4-4-4-4-xx-4-4-4-x-|

Guitar 1 - RIFF 2
     use all downstrokes

e|------------------------------|
B|------------------------------|
G|------------------------------|   X1
D|------------------------------|
A|5-5-5-5-xx-5-5-5-5-xx-5-5-5-x-|
E|3-3-3-3-xx-3-3-3-3-xx-3-3-3-x-|

Guitar 2 - plays during riff 2
     use all downstrokes

e|----------------------------------|
B|----------------------------------|
G|----------------------------------|   X1
D|7-7-7-7-7-7-7-7-7-7-7-7-7-7-7-7---|
A|----------------------------------|
E|----------------------------------|

Guitar 1 - RIFF 3
     use all downstrokes

e|------------------------------|
B|------------------------------|
G|------------------------------|   X1
D|------------------------------|
A|3-3-3-3-xx-3-3-3-3-xx-3-3-3-x-|
E|1-1-1-1-xx-1-1-1-1-xx-1-1-1-x-|

Guitar 2 - plays during riff 3
    use all downstrokes

e|--------------------------------|
B|--------------------------------|
G|--------------------------------|
D|6-6-6-6-6-6-6-6-6-6-6-6-6-6-6-6-|
A|--------------------------------|
E|--------------------------------|
Tap to rate this tab
# A B C D E F G H I J K L M N O P Q R S T U V W X Y Z