Song name
# A B C D E F G H I J K L M N O P Q R S T U V W X Y Z

Foxy Shazam - Talent Show tab

Help us improve GuitareTab! Take a short survey!
Here's the intro.

Rhythm:

E[------------:-----------:-----------:-----------|
B[------------:-----------:-----------:-----------|
G[------------:-----------:-----------:-----------|
D[-9----------:7----------:5----------:4-----7----|  x4
A[-9----------:7----------:5----------:4-----7----|
E[-7----------:5----------:3----------:2-----5----|
   1 2 3 4 5 6 1 2 3 4 5 6 1 2 3 4 5 6 1 2 3 4 5 6

Lead:

   1 2 3 4 5 6 1 2 3 4 5 6 1 2 3 4 5 6 1 2 3 4 5 6
E[-------5h6h7:------3h4h5:------1h2h3:--1h2---4h5-|
B[-----7------:----5------:----3------:------------|   Wait for 8 measures
G[------------:-----------:-----------:------------|  (2 phrases)of rhythm
D[------------:-----------:-----------:------------| Then play for 8 measures
A[------------:-----------:-----------:------------|
E[------------:-----------:-----------:------------|

16 measures total, I have no idea how fast this will go but it's certainly going
to go really fast.
Related for Talent Show tab