Foxy Shazam - Unstoppable tab

Ok so basicly this whole song goes on the same chords.

All power chords

Intro-Verse

e-----------------------|
B-----------------------|
G-----------------------|  X2
D---7-------------------|
A-7-5-7-5-4--5-4--8-7---|
E-5---5-3-2--3-2--6-5---|

And we
won't back down this time
e-------------------|
B-------------------|
G-------------------|
D-5-------4--------7|
A-5-------4--------7|
E-3-------2--------5|

And we
won't back down this time
e-------------------|
B-------------------|
G---------7---------|
D-5-------7--------7|
A-5-------5--------7|
E-3----------------5|

Chorus

we are
unstoppable
e-----------------|
B-----------------|
G-7---------------|
D-7----7----5----7| X2
A-5----7----5----7|
E------5----3----5|

Verse

e-----------------------|
B-----------------------|
G-----------------------|  X2
D---7-------------------|
A-7-5-7-5-4--5-4--8-7---|
E-5---5-3-2--3-2--6-5---|

And we
won't back down this time
e-------------------|
B-------------------|
G---------7---------|
D-5-------7--------7|
A-5-------5--------7|
E-3----------------5|

Chorus

we are
unstoppable
e-----------------|
B-----------------|
G-7---------------|
D-7----7----5----7| X2
A-5----7----5----7|
E------5----3----5|


Oh yo yo Yeah..

e-----------------|
B-----------------|
G-7---------------|
D-7----7----7----5| X2
A-5----7----7----5|
E------5----5----3|

e-----------------|
B-----------------|
G-7---------------|
D-7----7----5----7| X2
A-5----7----5----7|
E------5----3----5|

And we
won't back down this time
e-------------------|
B-------------------|
G---------7---------|
D-5-------7--------7|
A-5-------5--------7|
E-3----------------5|

Chorus

we are
unstoppable
e-----------------|
B-----------------|
G-7---------------|
D-7----7----5----7| X2
A-5----7----5----7|
E------5----3----5|
Tap to rate this tab
 
# A B C D E F G H I J K L M N O P Q R S T U V W X Y Z