Song name
# A B C D E F G H I J K L M N O P Q R S T U V W X Y Z

Foxy Shazam - I Like It tab

Song: I Like It
Artist: Foxy Shazam
Tabbed by: mattsieffert@gmail.com

Tuning: Standard tuning 1/2 step down

Intro

e|-------------------------------------------|
B|-------------------------------------------|
G|-2-----2--2----2-------2----2--2-----------|
D|-2-----2--2----2-------2----2--2-----------|
A|-0-----0--0----0--5-3~-0----0--0-------0---|
E|---3b-------3b-----------3b------4-3~------|

Verse (guitar comes in second half of verse)

e|--------------------------------------|----------------------------------------|
B|--------------------------------------|------------------------------------5-5-|
G|-2-----2--2----2-------2----2--2------|---------------------2----2--2------2-2-|
D|-2-----2--2----2-------2----2--2------|---------------------2----2--2------2-2-|
A|-0-----0--0----0--5-3~-0----0--0------|-3-3--3--3-3----5-3~-0----0--0------0-0-|
E|---3b-------3b-----------3b------4-3~-|-1-1--1--1-1-----------3b------4-3~-----|

Pre-Chorus

e|----------------------|---------------------------|
B|----------------------|---------------------------|
G|--7-7--7-7--7-7--7----|--9-9--9-9--9-9--9---------|
D|--7-7--7-7--7-7--7----|--9-9--9-9--9-9--9---------|
A|--5-5--5-5--5-5--5----|--7-7--7-7--7-7--7----x-3b-|
E|----------------------|--0-0--0-0--0-0--0---------|

Chorus (x2)

e|-------------------------------------------|
B|-------------------------------------------|
G|-2-----2--2----2-------2----2--2-----------|
D|-2-----2--2----2-------2----2--2-----------|
A|-0-----0--0----0--5-3~-0----0--0-------0---|
E|---3b-------3b-----------3b------4-3~------|

Horn Section after Chorus
        * 1 1/2 step bend
e|------------------------------------------------|
B|---10br-----------------------------------------|
G|---------9-8-7-5---7-5~----9-xx-8-xx-7-x-5-x-55-|
D|-7---------------7------------------------------|
A|------------------------------------------------|
E|------------------------------------------------|

Verse 2 Guitar Fill

e|-5--3-5--5--3-5--5-|-5--3-5--5-3-2--1-|-1-1-1--1-1-1--3--5--3-5--5-3-2---|
B|-5--3-5--5--3-5--5-|-5--3-5--5-3-2--1-|-1-1-1--1-1-1--3--5--3-5--5-3-2---|
G|-6--4-6--6--4-6--6-|-6--4-6--6-4-3--2-|-2-2-2--2-2-2--4--6--4-6--6-4-3---|
D|-7--5-7--7--5-7--7-|-7--5-7--7-5-4--3-|-3-3-3--3-3-3--5--7--5-7--7-5-4---|
A|-------------------|------------------|----------------------------------|
E|-------------------|------------------|----------------------------------|

Guitar Solo

e|--/14-14--/16-16--16b-16b---16brp14----14------------------|
B|------------------------------------17----14br--14\12-12~--|
G|-----------------------------------------------------------|
D|-----------------------------------------------------------|
A|-----------------------------------------------------------|
E|-----------------------------------------------------------|

                                        *time to go fast.................
e|-------------------------------------|-------0-5b-5p3p0-----------------|
B|-12\10-10~--10\9-9~--9\7-7~--7\5-5~--|-0h3h5------------2h3p2p0---------|
G|-------------------------------------|--------------------------2-4-----|
D---------------------------------------------------------------------(2)-|
A|------------------------------------------------------------------------|
E|------------------------------------------------------------------------|

e|---------------------------------------------------------|
B|------------------------------------12-x-14-x-17-x-16b~--|
G|7h9/11~--9h11/13~--11h13/14~--14p13----------------------|
D|---------------------------------------------------------|
A|---------------------------------------------------------|
E|---------------------------------------------------------|

e|12-14-16~---16-17-19~---19-21-21b-21~---19-17-16b~~~~-------|
B|------------------------------------------------------------|
G|------------------------------------------------------------|
D|------------------------------------------------------------|
A|------------------------------------------------------------|
E|------------------------------------------------------------|

************************************

| /   slide up
| \   slide down
| h   hammer-on
| p   pull-off
| ~   vibrato
| +   harmonic
| x   Mute note
| b   Bend
| pb  Pre-bend
| br  Bend release
| pbr Pre-bend release
| brb Bend release bend

************************************
Tap to rate this tab
# A B C D E F G H I J K L M N O P Q R S T U V W X Y Z