Song name
# A B C D E F G H I J K L M N O P Q R S T U V W X Y Z

Foxy Shazam - Gonzo tab

-------------------------------------------------------------------------------
			     GONZO - Foxy Shazam
-------------------------------------------------------------------------------
Tuning: Standard

Intro
e|----------------------------------------------------------------|
B|----------------------------------------------------------------|
G|----7-----7-----7-----7-----7-------7-----7-----7-----7-----7---|
D|----------------------------------------------------------------|
A|xx5---xx5---xx5---xx5---xx5-----xx5---xx5---xx5---xx5---xx5-----|
E|----------------------------------------------------------------|


Band Comes In
e|----------------------------------------------------------------|
B|----------------------------------------------------------------|
G|----7-----7-----7-----7-----7-------7-----7-----7-----7-----7---|
D|----------------------------------------------------------------|
A|xx5---xx5---xx5---xx5---xx5-----xx5---xx5---xx5---xx5---xx5-----|
E|----------------------------------------------------------------|

e|----------------------------------------------------------------|
B|----------------------------------------------------------------|
G|----7-----7-----7-----7-----7-------7-----7-----7-----7-----7---|
D|----------------------------------------------------------------|
A|xx5---xx5---xx5---xx5---xx5-----xx5---xx5---xx5---xx5---xx5-----|
E|----------------------------------------------------------------|


First Verse, only short lick at the end (16th notes triplets)
   A liar is a man with a long nose/Get your cops cars a check-up before the bad guy gets away
e|---------------------------------------------------------------------------|
B|---------------------------------------------------------------------------|
G|---------------------------------------------------------------------------|
D|---------------------------------------------------------------------------|
A|---------------------------------------------------------------------------|
E|---------------------------------------------------------------------------|

   A hero is a thing the Foo Fighters sing about     /     Me, I'm just a man
e|---------------------------------------------------------------------------|
B|---------------------------------------------------------------------------|
G|------------------------------7p5h7p5h7p5h7p5h7p5h7p5h7p5h7p5h7p5-7b9------|
D|---------------------------------------------------------------------------|
A|---------------------------------------------------------------------------|
E|---------------------------------------------------------------------------|


Chorus
      I've gone gonzo                 I've gone gonzo
e|----------------------------------------------------------------|
B|----------------------------------------------------------------|
G|----7-----7-----7-----7-----7-------7-----7-----7-----7-----7---|
D|----------------------------------------------------------------|
A|xx5---xx5---xx5---xx5---xx5-----xx5---xx5---xx5---xx5---xx5-----|
E|----------------------------------------------------------------|

      I'm going gonzo
e|----------------------------------------------------------------|
B|-------------------------------------------------------6--------|
G|----7-----7-----7-----7-----7-------7-----7--------5-----7------|
D|------------------------------------------------7---------------|
A|xx5---xx5---xx5---xx5---xx5-----xx5---xx5---xx------------------|
E|----------------------------------------------------------------|


Second Verse (chords on the & of 3)
   Caterpillar into butterfly/A blooming canvas covered brilliant color caught the eye 
e|----------5---------------3--------------1---------------------|
B|----------6---------------3--------------1---------------------|
G|----------7---------------4--------------2-------7-7-5s7-------|
D|----------7---------------5--------------3-------7-7-5s7-------|
A|----------5---------------5--------------3-------5-5-3s5-------|
E|--------------------------3--------------1---------------------|

Poisoned like a black swan actress / A most fantastic death wish
e|--10------5---------------3--------------1---------------------|
B|----------6------8b10r8---3--------------1---------------------|
G|7---------7---------------4--------------2---------------------|
D|----------7---------------5--------------3---7---5-7-5-7-5-7---|
A|----------5---------------5--------------3---------------------|
E|--------------------------3--------------1---------------------|


Chorus
      I've gone gonzo whoa oh         I've gone gonzo
e|----------------------------------------------------------------|
B|----------------------------------------------------------------|
G|----7-----7-----7-----7-----7-------7-----7-----7-----7-----7---|
D|----------------------------------------------------------------|
A|xx5---xx5---xx5---xx5---xx5-----xx5---xx5---xx5---xx5---xx5-----|
E|----------------------------------------------------------------|

      I'm going gonzo
e|----------------------------------------------------------------|
B|------------------------------------------------------6---------|
G|----7-----7-----7-----7-----7-------7-----7--------5--5-7-------|
D|------------------------------------------------7--5--3-7-------|
A|xx5---xx5---xx5---xx5---xx5-----xx5---xx5---xx--7--3----5-------|
E|------------------------------------------------5---------------|


 Break
e|----------------------------------------------------------------|
B|----------------------------------------------------------------|
G|----------------------------------------------------------------|
D|--------------------------------------------------------------33|
A|5555555555555555555555555555555555555555555555555555555555------|
E|----------------------------------------------------------3355--|

e|----------------------------------------------------------------|
B|----------------------------------------------------------------|
G|----------------------------------------------------------------|
D|--------------------------------------------------------------33|
A|5555555555555555555555555555555555555555555555555555555555------|
E|----------------------------------------------------------3355--|

      I've gone gonzo                  I'm going gonzo
e|----------------------------------------------------------------|
B|----------------------------------------------------------------|
G|----------------------------------------------------------------|
D|----------------------------------------------------------------|
A|55555555----------------------------------------5555555555555555|
E|--------5555555533333333333333331111111100000000----------------|

       I've gone gonzo                 whoa whoa
e|----------------------------------------------------------------|
B|----------------------------------------------------------------|
G|----------------------------------------------------------------|
D|----------------------------------------------------------------|
A|55555555----------------------------------------5555555555555555|
E|--------5555555533333333333333331111111100000000----------------|


Fake Ending
   I think I'll go cannonball into the waterbed
e|---------------------------------------------------------------------------|
B|10(sustain for four bars, it dies and comes back)--------------------------|
G|---------------------------------------------------------------------------|
D|---------------------------------------------------------------------------|
A|---------------------------------------------------------------------------|
E|---------------------------------------------------------------------------|

Chorus
       I've gone gonzo    whoa oh                    I've gone gonzo
e|----------------------------------------------------------------|
B|----------------------------------------------------------------|
G|----7-----7-----7-----7-----7-------7-----7-----7-----7-----7---|
D|----------------------------------------------------------------|
A|xx5---xx5---xx5---xx5---xx5-----xx5---xx5---xx5---xx5---xx5-----|
E|----------------------------------------------------------------|

       I've gone gonzo    whoa                         whoa
e|----------------------------------------------------------------|
B|------------------------------------------------------6---------|
G|----7-----7-----7-----7-----7------------54-54-----5--5-7-------|
D|--------------------------------65-65-65--------7--5--3-7-------|
A|xx5---xx5---xx5---xx5---xx5---------------------7--3----5-------|
E|------------------------------------------------5---------------|
Tap to rate this tab
# A B C D E F G H I J K L M N O P Q R S T U V W X Y Z