Song name
# A B C D E F G H I J K L M N O P Q R S T U V W X Y Z

Foy Vance - Homebird tab

I was frustrated I couldn't find any tabs for this song, so decided to make my first 
at writing my own tabs.

Help from this guy:

http://www.youtube.com/watch?v=Eit6paG-B4E

Intro:
E|-----------------------------------3----------------------------------------------------|
B|------5-----5----3-----3----1----1-----1------6-----6----5-----5----3-----3----3-----3--|
G|--------0----------0----------0-----0-----------0-----------0----------0----------0-----|
D|----------------------------------------------------------------------------------------|
A|------3---3------2---2------0---0------0------5---5------3---3------2----2-----2----2---|
E|----------------------------------------------------------------------------------------|


E|------------------------------------------------------------------------------------|
B|------5-----5----3-----3----1----1---1----1----6-----5-----6-----5-----3-----3---8--|
G|--------0----------0----------0--------0----------0-----0-----0-----0-----0---------|
D|------------------------------------------------------------------------------------|
A|------3---3------2---2------0---0----0---0-----5-----3-----5-----3-----2-----2---7--|
E|------------------------------------------------------------------------------------|
Tap to rate this tab
# A B C D E F G H I J K L M N O P Q R S T U V W X Y Z