Foy Vance - Back In Black chords

Highlighted       Show chord diagrams
-----------------------------------------------------------------------------
			     Back in Black - Foy Vance
-------------------------------------------------------------------------------
Tabbed by: Michel12
Email: ptit_mickeymouse@hotmail.com
Tuning : Standard
--
This is the acoustic version live from Belfast without drums. 
http://www.youtube.com/watch?v=tP8h0johbXs&feature=related

I didn't write the solo because it gives you the freedom add your own solo.
No capo. Play it in barre chords, it sounds much better.


Intro (4x)
    G     F        C 
E-|-3---1-1-1---8--8--8---------|
B-|-3---1-1-1---8--8--8---------|
G-|-4---2-2-2---9--9--9---------|
D-|-5---3-3-3---10-10-10--------|
A-|-5---3-3-3---10-10-10--------|
E-|-3---1-1-3---8--10-10--------|

         ~~~~~~~~~~~~~~~

Verse 1
G            F
Back in black, I get the track babe
C
won't be too long for my own to be back
G                  F               
Yeah, I'm let loose, From the noose
C
That's kept me hanging around, babe
G                             F 
I've been reaching for the sky , it's gettin' me high
C
Forget the hearse babe, I'm gonna never die
G                   F
I'm not gonna to try, I got a nine lives.
C
You've got everyone of them and get wild.

          ~~~~~~~~~~~~~~~

Chorus
Back in black babe (2x)-Back in black babe (2x)- Back in black babe (2x)
    Dm7                        G                         C 
E-|-5--5---------------------3--3-----------------------5--5-----------|
B-|-6--6---------------------3--3-----------------------6--6-----------|
G-|-5--5---------------------4--4-----------------------5--5-----------|
D-|-7--7---------------------5--5-----------------------7--7-----------|
A-|-5--5---------------------5--5-----------------------5--5-----------|
E-|-5--5---------------------3--3-----------------------5--5-----------|

baby i'm back in black and back in black
      F                         C 
E-|-1--1-----------------------5--5-----------|
B-|-1--1-----------------------6--6-----------|
G-|-2--2-----------------------5--5-----------|
D-|-3--3-----------------------7--7-----------|
A-|-3--3-----------------------5--5-----------|
E-|-1--1-----------------------5--5-----------|

Intro + Solo Alone (4x)
    G     F        C 
E-|-3---1-1-1---8--8--8---------|
B-|-3---1-1-1---8--8--8---------|
G-|-4---2-2-2---9--9--9---------|
D-|-5---3-3-3---10-10-10--------|
A-|-5---3-3-3---10-10-10--------|
E-|-3---1-1-3---8--10-10--------|

         ~~~~~~~~~~~~~~~

Verse 2
G               F
Back in the back, I get a track baby
C
They weren't one with a bullet, I'm a power pack
G                 F
Yes I'm, in a bang, with a gang
C
You've better give me, you want me to hang
G                        F
I keep beating the flack, don't let it back
C
You've better think it twice before you cross my back
G                  F               
Yeah, I'm let loose, From the noose
C
That's kept me hanging around, babe

         ~~~~~~~~~~~~~~~

Chorus
Back in black babe (6x)

baby i'm back in black (2x)

Intro + Solo Alone (4x)
    G     F        C 
E-|-3---1-1-1---8--8--8---------|
B-|-3---1-1-1---8--8--8---------|
G-|-4---2-2-2---9--9--9---------|
D-|-5---3-3-3---10-10-10--------|
A-|-5---3-3-3---10-10-10--------|
E-|-3---1-1-3---8--10-10--------|

         ~~~~~~~~~~~~~~~

Verse 3
G            F
Back in black, I get the track babe
C
won't be too long for my own to be back
G                  F               
Yeah, I'm let loose, From the noose
C
That's kept me hanging around, babe
G                             F 
I've been reaching for the sky , it's gettin' me high
C
Forget the hearse babe, I'm gonna never die
G                   F
I'm not gonna to try, I got a nine lives.
C
You've got everyone of them and get wild.

         ~~~~~~~~~~~~~~~

Chorus
Back in black babe (6x)
baby i'm back in black (2x)

         ~~~~~~~~~~~~~~~

Okay so enjoy this tab, e-mail me if you
have any questions or comments or whatever, and have fun playing!!!
Tap to rate this tab
 
# A B C D E F G H I J K L M N O P Q R S T U V W X Y Z