Foy Vance - Homebird tab

-------------------------------------------------------------------------------
			     Homebird - Foy Vance
-------------------------------------------------------------------------------
Tabbed by: gamer2293
Email: internetgamer2293@yahoo.com

Just listen to the song and you will get it soon enough. 
e|----------------------------------3--------------------------------------------------|
B|---5---5------3----3----1----1----1---1----6----6----5-----5----3-----3----3-----3---|
G|---0----0-------0---0-----0---0--------0----0----0-----0----0-----0----0-----0----0--|
D|-------------------------------------------------------------------------------------|
A|--3---3-------2---2-----0---0----0---0-----5---5-----3----3-----2----2-----2-----2---|
E|-------------------------------------------------------------------------------------|

e|----------------------------------3-------------------------3------|
B|---5---5------3----3----1----1----1---1----6-5-6-5-3---3--5--------|
G|---0----0-------0---0-----0---0--------0---0-0-0-0---0--0--0-------|
D|-------------------------------------------------------------------|
A|--3---3-------2---2-----0---0----0---0-----5-3-2-0-----------------|
E|---------------------------------------------------3--3---3--------|

After that it starts all over. Hope it helps :)
Tap to rate this tab
 
# A B C D E F G H I J K L M N O P Q R S T U V W X Y Z