Song name
# A B C D E F G H I J K L M N O P Q R S T U V W X Y Z

Foy Vance - Crosstown Traffic tab

---------------------------------------------------------------------------
			     CROSSTOWN TRAFFIC  FOY VANCE COVER
--------------------------------------------------------------------------
Tabbed by: jamesmckee92


Play the F#7 a few times for intro, then go into the chord progression B7 to E7 with the 
fret A string note in between the two chords. Then back up to the F#7 chord.

   F#7      B7        E7
e|--0-------X---------0-------------------------------|
B|--10------7---------0-------------------------------|
G|--9-------7---------7-------------------------------|
D|--8-------7---------6-------------------------------|
A|--9-------X----5----7-------------------------------|
E|--x-------------------------------------------------|

Then:


          B7        E7         A        D7        G7    F#
e|--------X---------0----------5--------x----------3----0---|
B|--------7---------0----------5--------x----------3----3---|
G|--------7---------7----------6--------5----------4----3---|
D|--------7---------6----------7--------4----------3----2---|
A|--------X----5----7----------7----7---5----------5--------|
E|------------------------7----5--------x----5-----3--------|

THIS PATTERN THEN REPEATS

BRIDGE:


e|-4--5--6--7---------|
B|-7--8--9--10--------|
G|-6--7--8--9---------|
D|-4--5--6--7---------|
A|-4--5--6--7---------|
E|-X--X--X--X---------|

THEN BACK TO ORIGINAL CHORD PROGRESSION B7 E7 ETC.

OUTRO:
   F#7          G CHORD
e|--0-----------0------------x---x---x-----------------|
B|--10----------11-----------5---6---7-----------------|
G|--9-----------10-----------5---6---7-----------------|
D|--8-----------9------------5---6---7-----------------|
A|--9-----------10-------------------------------------|
E|--x-----------x--------------------------------------|
Tap to rate this tab
 
# A B C D E F G H I J K L M N O P Q R S T U V W X Y Z