Song name
# A B C D E F G H I J K L M N O P Q R S T U V W X Y Z

Foy Vance - Be The Song tab

Ok, so this is my first time tabbing a song, and it's all by ear. There's a lot of it
that I haven't figured out yet, but I hope this helps.
The tabs below are played in the intro and in the verses, I haven't figured out the 
chorus just yet.

|---------------------------------------------------------------------------------|
|---------------------------------------------------------------------------------|
|-------7----7--7-----7---7---7--7-----------------7----7--7-----7---7---7--7-----|
|--5---7---9--9-----9---7----5--5-------------5---7---9--9-----9---7----5--5------|
|---------------------------------------------------------------------------------|
|---------------------------------------------------------------------------------|

|-----------------------------------------------------------------------|
|-----------------------------------------------------------------------|
|---7---7---7--7-----7---7----7--7-----7---7----7--7-----7---7----7--7--|
|---5---7---9--9-----9---7----5--7-----9---7----5--5-----9---7----5--5--|
|-----------------------------------------------------------------------|
|-----------------------------------------------------------------------|
Tap to rate this tab
# A B C D E F G H I J K L M N O P Q R S T U V W X Y Z