Song name
# A B C D E F G H I J K L M N O P Q R S T U V W X Y Z

Foy Vance - Be The Song tab

Just tabbed out the chords, you'll have to figure out the rhythm for yourself.
Im not sure its 100% correct, but its pretty close to how he plays it. 
And it sounds a lot better than the other versions. 

The ring finger is on the B string during the entire song, and the middle
finger plays the E and A string. The index finger plays the 2nd fret on
the g string, and the pinky the 4th fret. So your hand stays mostly in the same position. 

On the G string there is some hammer ons and pull offs, when it shifts from 0-2-4. 
But you can just play around with it and figure that part out for yourself. 

Here is the video i tabbed it from:

http://www.youtube.com/watch?v=OoD3ZNNd26c


Verse

|---------------------------------------------------|
|----3----3------3----3-------3-------3---3-----3---|
|----0----2------4----4-------2-------0---2-----4---|
|----0----0------0----0-------0-------0---0-----0---|
|---------------------------------------------------|
|--3----3------3----3-------3-------3---3-----3-----|


|----------------------------------------------------|
|----3----3----3----3----3----3----3-----3----3------|
|----4----4----2----0----2----4----4-----2----0------|
|----0----0----0----0----0----0----0-----0----0------|
|----------------------------------------------------|
|--3----0----0----0----0----0----3-----3----3--------|

|------------------------------------------------------------|
|----3-----3-----3-----3-----3-----3-----3-----3-------------|
|----0-----4-----2-----0-----0-----4-----2-----0-------------|
|----0-----0-----0-----0-----0-----0-----0-----0-------------|
|-0-----0-----0-----0-----3-----3-----3-----3----------------|
|------------------------------------------------------------|

Chorus

|---------------------|      
|-----3-----3---------|      
|-----0-----0---------|      
|-----0-----2---------| X3 
|---------------------|     
|--3-----0------------|     

|--------------|
|----3---------|
|----0---------|
|----0---------|
|----3---------|
|--------------|

End the last sentence on the chorus with the last part. 

TL
Tap to rate this tab
# A B C D E F G H I J K L M N O P Q R S T U V W X Y Z