Song name
# A B C D E F G H I J K L M N O P Q R S T U V W X Y Z

Fozzey And Vanc - Perfect Couple tab

Hey this is my first tab i'm positive it's %100 correct, done all by ear i played 
it through heaps of times. There is 2 parts the rhythm and lead. Some parts are 
quieter than others like picked strings and lead. 
For my mate brandon

Rhythm 0:11 - 0:31
e|--------------------------------------------------|
B|-10-9-10-7-2--6-7--10-9-10-7-2--2-6--6-7----------|
G|-11-9-11-7-2--6-7--11-9-11-7-2-2--6-6--7----------|
D|--------------------------------------------------|
A|--------------------------------------------------|
E|--------------------------------------------------|
Rhythm 0:34 - 0:54
e|-5-7-9----------------------5-7-9--------------------|
B|-7-9-10-9-10-7-2--2-6--6-7--7-9-10-9-10-7-2--2-6--6-2|
G|--------9-11-7-2-2--6-6--7---------9-11-7-2-2--6-6--2|
D|-----------------------------------------------------|
A|-----------------------------------------------------|
E|-----------------------------------------------------|
Rhythm 0:58 - 1:18
e|--------------------------------------------------|
B|-10-9-7-2--2-6--6-7-x2----------------------------|
G|-11-9-7-2-2--6-6--7-x2----------------------------|
D|--------------------------------------------------|
A|--------------------------------------------------|
E|--------------------------------------------------|
Rhythm 1:23 - 1:41
e|-5-7-9-----------------5-7-9----------------------|
B|-7-9-10-7-2--2-6--6-7--7-9-10-9-10--7-2--2-2--6--2|
G|--------7-2-2--6-6--7---------9-11-7--2-2--2--6--2|
D|--------------------------------------------------|
A|--------------------------------------------------|
E|--------------------------------------------------|
Rhythm 1:44 - 2:04
e|-------------------------------------------------------------------|
B|-23-21-23-19---14-14---18-18---19-19----23-23-21-23-19---14--18-19-|
G|-23-21-23-19-14---14-18---18-19---19--23---23-21-23-19-14----18-19-|
D|-------------------------------------------------------------------|
A|-------------------------------------------------------------------|
E|-------------------------------------------------------------------|
Or 1:44 - 2:04
e|-17-16-17-14-----------13-13---14-14----17-17-16-17-14---------13-14-|
B|-19-17-19-15---14-14-14---14-15---15--19---19-17-19-15---14-14-14-15-|
G|-------------14---14-----------------------------------14---14-------|
D|---------------------------------------------------------------------|
A|---------------------------------------------------------------------|
E|---------------------------------------------------------------------|
Rhythm 2:06 - 2:27
e|-5-7-9--------------------5-7-9-------------------------|
B|-7-9-10-9-10-7--2-2--6-7--7-9-10-9-10--7-7-2--2--6-6--2-|
G|--------9-11-7-2--2--6-7---------9-11-7--7-2-2--6--6--2-|
D|--------------------------------------------------------|
A|--------------------------------------------------------|
E|--------------------------------------------------------|
Rhythm 2:30 - 2:50
e|-------------------------------5-7-10-----------------------|
B|-10-9-10--7-2--2--2--2-6--6-7--7-9-11-9-10--7-7-2--2-6--6-2-|
G|-11-9-11-7--2-2---2-2--6-6--7---------9-11-7--7-2-2--6-6--2-|
D|------------------------------------------------------------|
A|------------------------------------------------------------|
E|------------------------------------------------------------|
Rhythm 2:52 - 3:05
e|-5-7-9------------------------9-------|
B|-7-9-10-9-10-7-2--2-6--2-------10-----|
G|--------9-11-7-2-2--6--2---------11---|
D|-----------------------------------11-|
A|--------------------------------------|
E|--------------------------------------|

Lead Guitar includes some fx in the background or actual guitar which is using a 
slide but vibrato also works but not as well

Lead 0:00 - 0:11
e|--------------------------------------------------|
B|-18-18-18\11-11-----------------------------------|
G|--------------------------------------------------|
D|--------------------------------------------------|
A|--------------------------------------------------|
E|--------------------------------------------------|
Lead 
  0:20  0:29  0:49  0:54  0:58 - 1:18
e|--------------------------------------------------------------|
B|-14----14----14----14----11-9-11-7\2-2--6-7--11-9-11-7-2--6-7-|
G|--------------------------------------------------------------|
D|--------------------------------------------------------------|
A|--------------------------------------------------------------|
E|--------------------------------------------------------------|
Lead 1:54 - 2:05
e|----------------------------------------|
B|-14/23----23-23\19----19-14/18-18-18\14-|
G|----------------------------------------|
D|----------------------------------------|
A|----------------------------------------|
E|----------------------------------------|
Or 1:54 - 2:05
e|----------------------------------------|
B|-10/19----19-19\15----15-10/14-14-14\10-|
G|----------------------------------------|
D|----------------------------------------|
A|----------------------------------------|
E|----------------------------------------|
Lead
  2:12  2:21  2:26  2:30 - 2:40       2:41  2:50  2:54  2:59  3:02  3:05
e|----------------------------------------------------------------------|
B|-14----14----14----11-9-11-7-2--6-7--23----14----23----14----14----14-|
G|----------------------------------------------------------------------|
D|----------------------------------------------------------------------|
A|----------------------------------------------------------------------|
E|----------------------------------------------------------------------|

key
/  =slide up
\  =slide down
Tap to rate this tab
# A B C D E F G H I J K L M N O P Q R S T U V W X Y Z