Song name
# A B C D E F G H I J K L M N O P Q R S T U V W X Y Z

Fozzy - Way I Am tab

fozzy-the way i am
album - all that remains
                   tuning (standard)

|-------------------------------|
|-------------------------------|
|-----------5--------------3----|X2
|---------5-------------5-------|
|-----3--------------3----------|
|--3--------------3-------------|


first small solo
|----------------------------------|
|--8/10----10---10-10/8------8-----|
|-------10---------------10--------|
|----------------------------------|
|----------------------------------|
|----------------------------------|

PM   __     __ __ __ __ _ 
|---------------------------|
|-4--00--4--00-00-00-00-0---|
|-2--00--2--00-00-00-00-0---|X8
|---------------------------|
|---------------------------|
|---------------------------|



Tap to rate this tab
 
# A B C D E F G H I J K L M N O P Q R S T U V W X Y Z