Song name
# A B C D E F G H I J K L M N O P Q R S T U V W X Y Z

Fozzy - Crucify Yourself tab

i only did one guitar

|-------------------------------------|
|-------------------------------------|
|-00000-7/6--0--5/4--0--7/6--0--8/7---|
|-00000-5/4--0--3/2--0--5/4--0--6/5---|=====
|-------------------------------------|     |
|-------------------------------------|     | 
pm.....      .       .       .              |x2

                                            |
|------------------------------|            |
|------------------------------|=============
|-00000-7/6--0--5/4--0--7/6----|
|-00000-5/4--0--3/2--0--5/4----|
|------------------------------|
|------------------------------|
pm.....      .       .


|---------------------------------------------------|
|---------------------------------------------------|
|-8--88--10--1010--12--1212--13--1313--10h12p10-----|
|---------------------------------------------------|x8
|---------------------------------------------------|
|---------------------------------------------------|
pm   ..      ....      ....      ....

|------------------------8-8h9p8--|
|---------------------------------|
|--666--777---666--777------------|
|--444--555---444--555------------|x2
|---------------------------------|
|---------------------------------|


|-------------------------------|
|-------------------------------|
|-666--777---666--777---7/4-----|x2
|-444--555---444--555---5/2-----|
|-------------------------------|
|-------------------------------|

|------------------------|
|------------------------|
|-666--777---666--777----|
|-444--555---444--555----|x4
|------------------------|
|------------------------|

Tap to rate this tab
 
# A B C D E F G H I J K L M N O P Q R S T U V W X Y Z